ISO-10303-21;
HEADER;
FILE_DESCRIPTION(('FreeCAD Model'),'2;1');
FILE_NAME('/home/aleph/Documents/JMS Parts/2-1 Dual/channel2.step',
  '2017-02-22T14:02:23',('Author'),(''),
  'Open CASCADE STEP processor 6.9','FreeCAD','Unknown');
FILE_SCHEMA(('AUTOMOTIVE_DESIGN_CC2 { 1 2 10303 214 -1 1 5 4 }'));
ENDSEC;
DATA;
#1 = APPLICATION_PROTOCOL_DEFINITION('committee draft',
  'automotive_design',1997,#2);
#2 = APPLICATION_CONTEXT(
  'core data for automotive mechanical design processes');
#3 = SHAPE_DEFINITION_REPRESENTATION(#4,#10);
#4 = PRODUCT_DEFINITION_SHAPE('','',#5);
#5 = PRODUCT_DEFINITION('design','',#6,#9);
#6 = PRODUCT_DEFINITION_FORMATION('','',#7);
#7 = PRODUCT('ASSEMBLY','ASSEMBLY','',(#8));
#8 = MECHANICAL_CONTEXT('',#2,'mechanical');
#9 = PRODUCT_DEFINITION_CONTEXT('part definition',#2,'design');
#10 = SHAPE_REPRESENTATION('',(#11,#15,#19),#23);
#11 = AXIS2_PLACEMENT_3D('',#12,#13,#14);
#12 = CARTESIAN_POINT('',(0.,0.,0.));
#13 = DIRECTION('',(0.,0.,1.));
#14 = DIRECTION('',(1.,0.,-0.));
#15 = AXIS2_PLACEMENT_3D('',#16,#17,#18);
#16 = CARTESIAN_POINT('',(0.,0.,0.));
#17 = DIRECTION('',(0.,0.,1.));
#18 = DIRECTION('',(1.,0.,0.));
#19 = AXIS2_PLACEMENT_3D('',#20,#21,#22);
#20 = CARTESIAN_POINT('',(0.,0.,0.));
#21 = DIRECTION('',(0.,0.,1.));
#22 = DIRECTION('',(1.,0.,0.));
#23 = ( GEOMETRIC_REPRESENTATION_CONTEXT(3) 
GLOBAL_UNCERTAINTY_ASSIGNED_CONTEXT((#27)) GLOBAL_UNIT_ASSIGNED_CONTEXT(
(#24,#25,#26)) REPRESENTATION_CONTEXT('Context #1',
  '3D Context with UNIT and UNCERTAINTY') );
#24 = ( LENGTH_UNIT() NAMED_UNIT(*) SI_UNIT(.MILLI.,.METRE.) );
#25 = ( NAMED_UNIT(*) PLANE_ANGLE_UNIT() SI_UNIT($,.RADIAN.) );
#26 = ( NAMED_UNIT(*) SI_UNIT($,.STERADIAN.) SOLID_ANGLE_UNIT() );
#27 = UNCERTAINTY_MEASURE_WITH_UNIT(LENGTH_MEASURE(1.E-07),#24,
  'distance_accuracy_value','confusion accuracy');
#28 = PRODUCT_TYPE('part',$,(#7));
#29 = ADVANCED_BREP_SHAPE_REPRESENTATION('',(#11,#30),#189);
#30 = MANIFOLD_SOLID_BREP('',#31);
#31 = CLOSED_SHELL('',(#32,#122,#181,#185));
#32 = ADVANCED_FACE('',(#33),#47,.T.);
#33 = FACE_BOUND('',#34,.F.);
#34 = EDGE_LOOP('',(#35,#64,#94,#95));
#35 = ORIENTED_EDGE('',*,*,#36,.T.);
#36 = EDGE_CURVE('',#37,#39,#41,.T.);
#37 = VERTEX_POINT('',#38);
#38 = CARTESIAN_POINT('',(-3.4,3.552713678801E-15,10.));
#39 = VERTEX_POINT('',#40);
#40 = CARTESIAN_POINT('',(-3.4,22.,10.));
#41 = SEAM_CURVE('',#42,(#46,#57),.PCURVE_S1.);
#42 = LINE('',#43,#44);
#43 = CARTESIAN_POINT('',(-3.4,22.,10.));
#44 = VECTOR('',#45,1.);
#45 = DIRECTION('',(-0.,1.,-0.));
#46 = PCURVE('',#47,#52);
#47 = CYLINDRICAL_SURFACE('',#48,3.4);
#48 = AXIS2_PLACEMENT_3D('',#49,#50,#51);
#49 = CARTESIAN_POINT('',(0.,22.,10.));
#50 = DIRECTION('',(-0.,1.,-0.));
#51 = DIRECTION('',(-1.,-0.,-0.));
#52 = DEFINITIONAL_REPRESENTATION('',(#53),#56);
#53 = B_SPLINE_CURVE_WITH_KNOTS('',1,(#54,#55),.UNSPECIFIED.,.F.,.F.,(2,
    2),(-22.,-0.),.PIECEWISE_BEZIER_KNOTS.);
#54 = CARTESIAN_POINT('',(-6.28318530718,-22.));
#55 = CARTESIAN_POINT('',(-6.28318530718,0.));
#56 = ( GEOMETRIC_REPRESENTATION_CONTEXT(2) 
PARAMETRIC_REPRESENTATION_CONTEXT() REPRESENTATION_CONTEXT('2D SPACE',''
  ) );
#57 = PCURVE('',#47,#58);
#58 = DEFINITIONAL_REPRESENTATION('',(#59),#63);
#59 = LINE('',#60,#61);
#60 = CARTESIAN_POINT('',(-4.138911435803E-13,0.));
#61 = VECTOR('',#62,1.);
#62 = DIRECTION('',(-0.,1.));
#63 = ( GEOMETRIC_REPRESENTATION_CONTEXT(2) 
PARAMETRIC_REPRESENTATION_CONTEXT() REPRESENTATION_CONTEXT('2D SPACE',''
  ) );
#64 = ORIENTED_EDGE('',*,*,#65,.F.);
#65 = EDGE_CURVE('',#39,#39,#66,.T.);
#66 = SURFACE_CURVE('',#67,(#72,#79),.PCURVE_S1.);
#67 = CIRCLE('',#68,3.4);
#68 = AXIS2_PLACEMENT_3D('',#69,#70,#71);
#69 = CARTESIAN_POINT('',(0.,22.,10.));
#70 = DIRECTION('',(0.,-1.,0.));
#71 = DIRECTION('',(-1.,-0.,-0.));
#72 = PCURVE('',#47,#73);
#73 = DEFINITIONAL_REPRESENTATION('',(#74),#78);
#74 = LINE('',#75,#76);
#75 = CARTESIAN_POINT('',(-0.,-0.));
#76 = VECTOR('',#77,1.);
#77 = DIRECTION('',(-1.,0.));
#78 = ( GEOMETRIC_REPRESENTATION_CONTEXT(2) 
PARAMETRIC_REPRESENTATION_CONTEXT() REPRESENTATION_CONTEXT('2D SPACE',''
  ) );
#79 = PCURVE('',#80,#89);
#80 = SURFACE_OF_REVOLUTION('',#81,#86);
#81 = CIRCLE('',#82,3.4);
#82 = AXIS2_PLACEMENT_3D('',#83,#84,#85);
#83 = CARTESIAN_POINT('',(-1.74426370009E-04,21.843732084625,10.));
#84 = DIRECTION('',(-2.232398791072E-03,0.999997508195,
    -2.220446049249E-16));
#85 = DIRECTION('',(-0.999997508195,-2.232398791072E-03,-0.));
#86 = AXIS1_PLACEMENT('',#87,#88);
#87 = CARTESIAN_POINT('',(69.99982557363,21.843732084625,10.));
#88 = DIRECTION('',(0.,0.,-1.));
#89 = DEFINITIONAL_REPRESENTATION('',(#90),#93);
#90 = B_SPLINE_CURVE_WITH_KNOTS('',1,(#91,#92),.UNSPECIFIED.,.F.,.F.,(2,
    2),(0.,6.28318530718),.PIECEWISE_BEZIER_KNOTS.);
#91 = CARTESIAN_POINT('',(2.232400645309E-03,6.28318530718));
#92 = CARTESIAN_POINT('',(2.232400645309E-03,0.));
#93 = ( GEOMETRIC_REPRESENTATION_CONTEXT(2) 
PARAMETRIC_REPRESENTATION_CONTEXT() REPRESENTATION_CONTEXT('2D SPACE',''
  ) );
#94 = ORIENTED_EDGE('',*,*,#36,.F.);
#95 = ORIENTED_EDGE('',*,*,#96,.T.);
#96 = EDGE_CURVE('',#37,#37,#97,.T.);
#97 = SURFACE_CURVE('',#98,(#103,#110),.PCURVE_S1.);
#98 = CIRCLE('',#99,3.4);
#99 = AXIS2_PLACEMENT_3D('',#100,#101,#102);
#100 = CARTESIAN_POINT('',(0.,3.552713678801E-15,10.));
#101 = DIRECTION('',(0.,-1.,0.));
#102 = DIRECTION('',(-1.,-0.,-0.));
#103 = PCURVE('',#47,#104);
#104 = DEFINITIONAL_REPRESENTATION('',(#105),#109);
#105 = LINE('',#106,#107);
#106 = CARTESIAN_POINT('',(-0.,-22.));
#107 = VECTOR('',#108,1.);
#108 = DIRECTION('',(-1.,0.));
#109 = ( GEOMETRIC_REPRESENTATION_CONTEXT(2) 
PARAMETRIC_REPRESENTATION_CONTEXT() REPRESENTATION_CONTEXT('2D SPACE',''
  ) );
#110 = PCURVE('',#111,#116);
#111 = PLANE('',#112);
#112 = AXIS2_PLACEMENT_3D('',#113,#114,#115);
#113 = CARTESIAN_POINT('',(1.005470685691E-16,3.552713678801E-15,10.));
#114 = DIRECTION('',(0.,-1.,-0.));
#115 = DIRECTION('',(0.,0.,1.));
#116 = DEFINITIONAL_REPRESENTATION('',(#117),#121);
#117 = CIRCLE('',#118,3.4);
#118 = AXIS2_PLACEMENT_2D('',#119,#120);
#119 = CARTESIAN_POINT('',(0.,1.005470685691E-16));
#120 = DIRECTION('',(-0.,1.));
#121 = ( GEOMETRIC_REPRESENTATION_CONTEXT(2) 
PARAMETRIC_REPRESENTATION_CONTEXT() REPRESENTATION_CONTEXT('2D SPACE',''
  ) );
#122 = ADVANCED_FACE('',(#123),#80,.F.);
#123 = FACE_BOUND('',#124,.F.);
#124 = EDGE_LOOP('',(#125,#148,#179,#180));
#125 = ORIENTED_EDGE('',*,*,#126,.T.);
#126 = EDGE_CURVE('',#39,#127,#129,.T.);
#127 = VERTEX_POINT('',#128);
#128 = CARTESIAN_POINT('',(14.63760282039,70.036917346882,10.));
#129 = SEAM_CURVE('',#130,(#135,#141),.PCURVE_S1.);
#130 = CIRCLE('',#131,73.399991920304);
#131 = AXIS2_PLACEMENT_3D('',#132,#133,#134);
#132 = CARTESIAN_POINT('',(69.99982557363,21.843732084625,10.));
#133 = DIRECTION('',(0.,0.,-1.));
#134 = DIRECTION('',(-0.999999994653,-1.034081297704E-04,-0.));
#135 = PCURVE('',#80,#136);
#136 = DEFINITIONAL_REPRESENTATION('',(#137),#140);
#137 = B_SPLINE_CURVE_WITH_KNOTS('',1,(#138,#139),.UNSPECIFIED.,.F.,.F.,
  (2,2),(2.232400645309E-03,0.716382850035),.PIECEWISE_BEZIER_KNOTS.);
#138 = CARTESIAN_POINT('',(2.232400645309E-03,4.138911435803E-13));
#139 = CARTESIAN_POINT('',(0.716382850035,4.138911435803E-13));
#140 = ( GEOMETRIC_REPRESENTATION_CONTEXT(2) 
PARAMETRIC_REPRESENTATION_CONTEXT() REPRESENTATION_CONTEXT('2D SPACE',''
  ) );
#141 = PCURVE('',#80,#142);
#142 = DEFINITIONAL_REPRESENTATION('',(#143),#147);
#143 = LINE('',#144,#145);
#144 = CARTESIAN_POINT('',(0.,6.28318530718));
#145 = VECTOR('',#146,1.);
#146 = DIRECTION('',(1.,0.));
#147 = ( GEOMETRIC_REPRESENTATION_CONTEXT(2) 
PARAMETRIC_REPRESENTATION_CONTEXT() REPRESENTATION_CONTEXT('2D SPACE',''
  ) );
#148 = ORIENTED_EDGE('',*,*,#149,.T.);
#149 = EDGE_CURVE('',#127,#127,#150,.T.);
#150 = SURFACE_CURVE('',#151,(#156,#163),.PCURVE_S1.);
#151 = CIRCLE('',#152,3.4);
#152 = AXIS2_PLACEMENT_3D('',#153,#154,#155);
#153 = CARTESIAN_POINT('',(17.20681264642,67.81,10.));
#154 = DIRECTION('',(0.654975690259,0.755649948832,-2.22044604925E-16));
#155 = DIRECTION('',(-0.755649948832,0.654975690259,-0.));
#156 = PCURVE('',#80,#157);
#157 = DEFINITIONAL_REPRESENTATION('',(#158),#162);
#158 = LINE('',#159,#160);
#159 = CARTESIAN_POINT('',(0.716382850035,0.));
#160 = VECTOR('',#161,1.);
#161 = DIRECTION('',(0.,1.));
#162 = ( GEOMETRIC_REPRESENTATION_CONTEXT(2) 
PARAMETRIC_REPRESENTATION_CONTEXT() REPRESENTATION_CONTEXT('2D SPACE',''
  ) );
#163 = PCURVE('',#164,#169);
#164 = PLANE('',#165);
#165 = AXIS2_PLACEMENT_3D('',#166,#167,#168);
#166 = CARTESIAN_POINT('',(17.20681264642,67.81,10.));
#167 = DIRECTION('',(-0.654975690259,-0.755649948832,1.161770085784E-17)
  );
#168 = DIRECTION('',(-0.755649948832,0.654975690259,-0.));
#169 = DEFINITIONAL_REPRESENTATION('',(#170),#178);
#170 = ( BOUNDED_CURVE() B_SPLINE_CURVE(2,(#171,#172,#173,#174,#175,#176
,#177),.UNSPECIFIED.,.F.,.F.) B_SPLINE_CURVE_WITH_KNOTS((1,2,2,2,2,1),(
    -2.094395102393,0.,2.094395102393,4.188790204786,6.28318530718,
8.377580409573),.UNSPECIFIED.) CURVE() GEOMETRIC_REPRESENTATION_ITEM() 
RATIONAL_B_SPLINE_CURVE((1.,0.5,1.,0.5,1.,0.5,1.)) REPRESENTATION_ITEM(
  '') );
#171 = CARTESIAN_POINT('',(3.4,0.));
#172 = CARTESIAN_POINT('',(3.4,-5.888972745734));
#173 = CARTESIAN_POINT('',(-1.7,-2.944486372867));
#174 = CARTESIAN_POINT('',(-6.8,-8.327598234202E-16));
#175 = CARTESIAN_POINT('',(-1.7,2.944486372867));
#176 = CARTESIAN_POINT('',(3.4,5.888972745734));
#177 = CARTESIAN_POINT('',(3.4,0.));
#178 = ( GEOMETRIC_REPRESENTATION_CONTEXT(2) 
PARAMETRIC_REPRESENTATION_CONTEXT() REPRESENTATION_CONTEXT('2D SPACE',''
  ) );
#179 = ORIENTED_EDGE('',*,*,#126,.F.);
#180 = ORIENTED_EDGE('',*,*,#65,.T.);
#181 = ADVANCED_FACE('',(#182),#111,.T.);
#182 = FACE_BOUND('',#183,.F.);
#183 = EDGE_LOOP('',(#184));
#184 = ORIENTED_EDGE('',*,*,#96,.F.);
#185 = ADVANCED_FACE('',(#186),#164,.F.);
#186 = FACE_BOUND('',#187,.T.);
#187 = EDGE_LOOP('',(#188));
#188 = ORIENTED_EDGE('',*,*,#149,.T.);
#189 = ( GEOMETRIC_REPRESENTATION_CONTEXT(3) 
GLOBAL_UNCERTAINTY_ASSIGNED_CONTEXT((#193)) GLOBAL_UNIT_ASSIGNED_CONTEXT
((#190,#191,#192)) REPRESENTATION_CONTEXT('Context #1',
  '3D Context with UNIT and UNCERTAINTY') );
#190 = ( LENGTH_UNIT() NAMED_UNIT(*) SI_UNIT(.MILLI.,.METRE.) );
#191 = ( NAMED_UNIT(*) PLANE_ANGLE_UNIT() SI_UNIT($,.RADIAN.) );
#192 = ( NAMED_UNIT(*) SI_UNIT($,.STERADIAN.) SOLID_ANGLE_UNIT() );
#193 = UNCERTAINTY_MEASURE_WITH_UNIT(LENGTH_MEASURE(1.E-07),#190,
  'distance_accuracy_value','confusion accuracy');
#194 = SHAPE_DEFINITION_REPRESENTATION(#195,#29);
#195 = PRODUCT_DEFINITION_SHAPE('','',#196);
#196 = PRODUCT_DEFINITION('design','',#197,#200);
#197 = PRODUCT_DEFINITION_FORMATION('','',#198);
#198 = PRODUCT('Sweep_(Mirror_#1)','Sweep_(Mirror_#1)','',(#199));
#199 = MECHANICAL_CONTEXT('',#2,'mechanical');
#200 = PRODUCT_DEFINITION_CONTEXT('part definition',#2,'design');
#201 = CONTEXT_DEPENDENT_SHAPE_REPRESENTATION(#202,#204);
#202 = ( REPRESENTATION_RELATIONSHIP('','',#29,#10) 
REPRESENTATION_RELATIONSHIP_WITH_TRANSFORMATION(#203) 
SHAPE_REPRESENTATION_RELATIONSHIP() );
#203 = ITEM_DEFINED_TRANSFORMATION('','',#11,#15);
#204 = PRODUCT_DEFINITION_SHAPE('Placement','Placement of an item',#205
  );
#205 = NEXT_ASSEMBLY_USAGE_OCCURRENCE('3','=>[0:1:1:2]','',#5,#196,$);
#206 = PRODUCT_TYPE('part',$,(#198));
#207 = ADVANCED_BREP_SHAPE_REPRESENTATION('',(#11,#208),#367);
#208 = MANIFOLD_SOLID_BREP('',#209);
#209 = CLOSED_SHELL('',(#210,#304,#359,#363));
#210 = ADVANCED_FACE('',(#211),#225,.T.);
#211 = FACE_BOUND('',#212,.T.);
#212 = EDGE_LOOP('',(#213,#242,#272,#273));
#213 = ORIENTED_EDGE('',*,*,#214,.T.);
#214 = EDGE_CURVE('',#215,#217,#219,.T.);
#215 = VERTEX_POINT('',#216);
#216 = CARTESIAN_POINT('',(3.4,3.552713678801E-15,10.));
#217 = VERTEX_POINT('',#218);
#218 = CARTESIAN_POINT('',(3.4,22.,10.));
#219 = SEAM_CURVE('',#220,(#224,#235),.PCURVE_S1.);
#220 = LINE('',#221,#222);
#221 = CARTESIAN_POINT('',(3.4,22.,10.));
#222 = VECTOR('',#223,1.);
#223 = DIRECTION('',(0.,1.,0.));
#224 = PCURVE('',#225,#230);
#225 = CYLINDRICAL_SURFACE('',#226,3.4);
#226 = AXIS2_PLACEMENT_3D('',#227,#228,#229);
#227 = CARTESIAN_POINT('',(0.,22.,10.));
#228 = DIRECTION('',(0.,1.,0.));
#229 = DIRECTION('',(1.,0.,0.));
#230 = DEFINITIONAL_REPRESENTATION('',(#231),#234);
#231 = B_SPLINE_CURVE_WITH_KNOTS('',1,(#232,#233),.UNSPECIFIED.,.F.,.F.,
  (2,2),(-22.,-0.),.PIECEWISE_BEZIER_KNOTS.);
#232 = CARTESIAN_POINT('',(6.28318530718,-22.));
#233 = CARTESIAN_POINT('',(6.28318530718,0.));
#234 = ( GEOMETRIC_REPRESENTATION_CONTEXT(2) 
PARAMETRIC_REPRESENTATION_CONTEXT() REPRESENTATION_CONTEXT('2D SPACE',''
  ) );
#235 = PCURVE('',#225,#236);
#236 = DEFINITIONAL_REPRESENTATION('',(#237),#241);
#237 = LINE('',#238,#239);
#238 = CARTESIAN_POINT('',(4.138911435803E-13,0.));
#239 = VECTOR('',#240,1.);
#240 = DIRECTION('',(0.,1.));
#241 = ( GEOMETRIC_REPRESENTATION_CONTEXT(2) 
PARAMETRIC_REPRESENTATION_CONTEXT() REPRESENTATION_CONTEXT('2D SPACE',''
  ) );
#242 = ORIENTED_EDGE('',*,*,#243,.F.);
#243 = EDGE_CURVE('',#217,#217,#244,.T.);
#244 = SURFACE_CURVE('',#245,(#250,#257),.PCURVE_S1.);
#245 = CIRCLE('',#246,3.4);
#246 = AXIS2_PLACEMENT_3D('',#247,#248,#249);
#247 = CARTESIAN_POINT('',(0.,22.,10.));
#248 = DIRECTION('',(-0.,1.,0.));
#249 = DIRECTION('',(1.,0.,0.));
#250 = PCURVE('',#225,#251);
#251 = DEFINITIONAL_REPRESENTATION('',(#252),#256);
#252 = LINE('',#253,#254);
#253 = CARTESIAN_POINT('',(0.,-0.));
#254 = VECTOR('',#255,1.);
#255 = DIRECTION('',(1.,0.));
#256 = ( GEOMETRIC_REPRESENTATION_CONTEXT(2) 
PARAMETRIC_REPRESENTATION_CONTEXT() REPRESENTATION_CONTEXT('2D SPACE',''
  ) );
#257 = PCURVE('',#258,#267);
#258 = SURFACE_OF_REVOLUTION('',#259,#264);
#259 = CIRCLE('',#260,3.4);
#260 = AXIS2_PLACEMENT_3D('',#261,#262,#263);
#261 = CARTESIAN_POINT('',(1.74426370009E-04,21.843732084625,10.));
#262 = DIRECTION('',(-2.232398791072E-03,-0.999997508195,
    2.220446049249E-16));
#263 = DIRECTION('',(0.999997508195,-2.232398791072E-03,0.));
#264 = AXIS1_PLACEMENT('',#265,#266);
#265 = CARTESIAN_POINT('',(-69.99982557363,21.843732084625,10.));
#266 = DIRECTION('',(0.,-0.,1.));
#267 = DEFINITIONAL_REPRESENTATION('',(#268),#271);
#268 = B_SPLINE_CURVE_WITH_KNOTS('',1,(#269,#270),.UNSPECIFIED.,.F.,.F.,
  (2,2),(0.,6.28318530718),.PIECEWISE_BEZIER_KNOTS.);
#269 = CARTESIAN_POINT('',(2.232400645309E-03,6.28318530718));
#270 = CARTESIAN_POINT('',(2.232400645309E-03,0.));
#271 = ( GEOMETRIC_REPRESENTATION_CONTEXT(2) 
PARAMETRIC_REPRESENTATION_CONTEXT() REPRESENTATION_CONTEXT('2D SPACE',''
  ) );
#272 = ORIENTED_EDGE('',*,*,#214,.F.);
#273 = ORIENTED_EDGE('',*,*,#274,.T.);
#274 = EDGE_CURVE('',#215,#215,#275,.T.);
#275 = SURFACE_CURVE('',#276,(#281,#288),.PCURVE_S1.);
#276 = CIRCLE('',#277,3.4);
#277 = AXIS2_PLACEMENT_3D('',#278,#279,#280);
#278 = CARTESIAN_POINT('',(0.,3.552713678801E-15,10.));
#279 = DIRECTION('',(-0.,1.,0.));
#280 = DIRECTION('',(1.,0.,0.));
#281 = PCURVE('',#225,#282);
#282 = DEFINITIONAL_REPRESENTATION('',(#283),#287);
#283 = LINE('',#284,#285);
#284 = CARTESIAN_POINT('',(0.,-22.));
#285 = VECTOR('',#286,1.);
#286 = DIRECTION('',(1.,0.));
#287 = ( GEOMETRIC_REPRESENTATION_CONTEXT(2) 
PARAMETRIC_REPRESENTATION_CONTEXT() REPRESENTATION_CONTEXT('2D SPACE',''
  ) );
#288 = PCURVE('',#289,#294);
#289 = PLANE('',#290);
#290 = AXIS2_PLACEMENT_3D('',#291,#292,#293);
#291 = CARTESIAN_POINT('',(-1.005470685691E-16,3.552713678801E-15,10.));
#292 = DIRECTION('',(-0.,-1.,-0.));
#293 = DIRECTION('',(0.,0.,-1.));
#294 = DEFINITIONAL_REPRESENTATION('',(#295),#303);
#295 = ( BOUNDED_CURVE() B_SPLINE_CURVE(2,(#296,#297,#298,#299,#300,#301
,#302),.UNSPECIFIED.,.F.,.F.) B_SPLINE_CURVE_WITH_KNOTS((1,2,2,2,2,1),(
    -2.094395102393,0.,2.094395102393,4.188790204786,6.28318530718,
8.377580409573),.UNSPECIFIED.) CURVE() GEOMETRIC_REPRESENTATION_ITEM() 
RATIONAL_B_SPLINE_CURVE((1.,0.5,1.,0.5,1.,0.5,1.)) REPRESENTATION_ITEM(
  '') );
#296 = CARTESIAN_POINT('',(0.,3.4));
#297 = CARTESIAN_POINT('',(5.888972745734,3.4));
#298 = CARTESIAN_POINT('',(2.944486372867,-1.7));
#299 = CARTESIAN_POINT('',(8.327598234202E-16,-6.8));
#300 = CARTESIAN_POINT('',(-2.944486372867,-1.7));
#301 = CARTESIAN_POINT('',(-5.888972745734,3.4));
#302 = CARTESIAN_POINT('',(0.,3.4));
#303 = ( GEOMETRIC_REPRESENTATION_CONTEXT(2) 
PARAMETRIC_REPRESENTATION_CONTEXT() REPRESENTATION_CONTEXT('2D SPACE',''
  ) );
#304 = ADVANCED_FACE('',(#305),#258,.T.);
#305 = FACE_BOUND('',#306,.T.);
#306 = EDGE_LOOP('',(#307,#330,#357,#358));
#307 = ORIENTED_EDGE('',*,*,#308,.T.);
#308 = EDGE_CURVE('',#217,#309,#311,.T.);
#309 = VERTEX_POINT('',#310);
#310 = CARTESIAN_POINT('',(-14.63760282039,70.036917346882,10.));
#311 = SEAM_CURVE('',#312,(#317,#323),.PCURVE_S1.);
#312 = CIRCLE('',#313,73.399991920304);
#313 = AXIS2_PLACEMENT_3D('',#314,#315,#316);
#314 = CARTESIAN_POINT('',(-69.99982557363,21.843732084625,10.));
#315 = DIRECTION('',(0.,-0.,1.));
#316 = DIRECTION('',(0.999999994653,-1.034081297704E-04,-0.));
#317 = PCURVE('',#258,#318);
#318 = DEFINITIONAL_REPRESENTATION('',(#319),#322);
#319 = B_SPLINE_CURVE_WITH_KNOTS('',1,(#320,#321),.UNSPECIFIED.,.F.,.F.,
  (2,2),(2.232400645309E-03,0.716382850035),.PIECEWISE_BEZIER_KNOTS.);
#320 = CARTESIAN_POINT('',(2.232400645309E-03,4.138911435803E-13));
#321 = CARTESIAN_POINT('',(0.716382850035,4.138911435803E-13));
#322 = ( GEOMETRIC_REPRESENTATION_CONTEXT(2) 
PARAMETRIC_REPRESENTATION_CONTEXT() REPRESENTATION_CONTEXT('2D SPACE',''
  ) );
#323 = PCURVE('',#258,#324);
#324 = DEFINITIONAL_REPRESENTATION('',(#325),#329);
#325 = LINE('',#326,#327);
#326 = CARTESIAN_POINT('',(0.,6.28318530718));
#327 = VECTOR('',#328,1.);
#328 = DIRECTION('',(1.,0.));
#329 = ( GEOMETRIC_REPRESENTATION_CONTEXT(2) 
PARAMETRIC_REPRESENTATION_CONTEXT() REPRESENTATION_CONTEXT('2D SPACE',''
  ) );
#330 = ORIENTED_EDGE('',*,*,#331,.T.);
#331 = EDGE_CURVE('',#309,#309,#332,.T.);
#332 = SURFACE_CURVE('',#333,(#338,#345),.PCURVE_S1.);
#333 = CIRCLE('',#334,3.4);
#334 = AXIS2_PLACEMENT_3D('',#335,#336,#337);
#335 = CARTESIAN_POINT('',(-17.20681264642,67.81,10.));
#336 = DIRECTION('',(0.654975690259,-0.755649948832,2.22044604925E-16));
#337 = DIRECTION('',(0.755649948832,0.654975690259,0.));
#338 = PCURVE('',#258,#339);
#339 = DEFINITIONAL_REPRESENTATION('',(#340),#344);
#340 = LINE('',#341,#342);
#341 = CARTESIAN_POINT('',(0.716382850035,0.));
#342 = VECTOR('',#343,1.);
#343 = DIRECTION('',(0.,1.));
#344 = ( GEOMETRIC_REPRESENTATION_CONTEXT(2) 
PARAMETRIC_REPRESENTATION_CONTEXT() REPRESENTATION_CONTEXT('2D SPACE',''
  ) );
#345 = PCURVE('',#346,#351);
#346 = PLANE('',#347);
#347 = AXIS2_PLACEMENT_3D('',#348,#349,#350);
#348 = CARTESIAN_POINT('',(-17.20681264642,67.81,10.));
#349 = DIRECTION('',(0.654975690259,-0.755649948832,1.161770085784E-17)
  );
#350 = DIRECTION('',(-0.755649948832,-0.654975690259,0.));
#351 = DEFINITIONAL_REPRESENTATION('',(#352),#356);
#352 = CIRCLE('',#353,3.4);
#353 = AXIS2_PLACEMENT_2D('',#354,#355);
#354 = CARTESIAN_POINT('',(0.,0.));
#355 = DIRECTION('',(-1.,0.));
#356 = ( GEOMETRIC_REPRESENTATION_CONTEXT(2) 
PARAMETRIC_REPRESENTATION_CONTEXT() REPRESENTATION_CONTEXT('2D SPACE',''
  ) );
#357 = ORIENTED_EDGE('',*,*,#308,.F.);
#358 = ORIENTED_EDGE('',*,*,#243,.T.);
#359 = ADVANCED_FACE('',(#360),#289,.T.);
#360 = FACE_BOUND('',#361,.T.);
#361 = EDGE_LOOP('',(#362));
#362 = ORIENTED_EDGE('',*,*,#274,.F.);
#363 = ADVANCED_FACE('',(#364),#346,.F.);
#364 = FACE_BOUND('',#365,.F.);
#365 = EDGE_LOOP('',(#366));
#366 = ORIENTED_EDGE('',*,*,#331,.T.);
#367 = ( GEOMETRIC_REPRESENTATION_CONTEXT(3) 
GLOBAL_UNCERTAINTY_ASSIGNED_CONTEXT((#371)) GLOBAL_UNIT_ASSIGNED_CONTEXT
((#368,#369,#370)) REPRESENTATION_CONTEXT('Context #1',
  '3D Context with UNIT and UNCERTAINTY') );
#368 = ( LENGTH_UNIT() NAMED_UNIT(*) SI_UNIT(.MILLI.,.METRE.) );
#369 = ( NAMED_UNIT(*) PLANE_ANGLE_UNIT() SI_UNIT($,.RADIAN.) );
#370 = ( NAMED_UNIT(*) SI_UNIT($,.STERADIAN.) SOLID_ANGLE_UNIT() );
#371 = UNCERTAINTY_MEASURE_WITH_UNIT(LENGTH_MEASURE(1.E-07),#368,
  'distance_accuracy_value','confusion accuracy');
#372 = SHAPE_DEFINITION_REPRESENTATION(#373,#207);
#373 = PRODUCT_DEFINITION_SHAPE('','',#374);
#374 = PRODUCT_DEFINITION('design','',#375,#378);
#375 = PRODUCT_DEFINITION_FORMATION('','',#376);
#376 = PRODUCT('Sweep','Sweep','',(#377));
#377 = MECHANICAL_CONTEXT('',#2,'mechanical');
#378 = PRODUCT_DEFINITION_CONTEXT('part definition',#2,'design');
#379 = CONTEXT_DEPENDENT_SHAPE_REPRESENTATION(#380,#382);
#380 = ( REPRESENTATION_RELATIONSHIP('','',#207,#10) 
REPRESENTATION_RELATIONSHIP_WITH_TRANSFORMATION(#381) 
SHAPE_REPRESENTATION_RELATIONSHIP() );
#381 = ITEM_DEFINED_TRANSFORMATION('','',#11,#19);
#382 = PRODUCT_DEFINITION_SHAPE('Placement','Placement of an item',#383
  );
#383 = NEXT_ASSEMBLY_USAGE_OCCURRENCE('4','=>[0:1:1:3]','',#5,#374,$);
#384 = PRODUCT_TYPE('part',$,(#376));
#385 = MECHANICAL_DESIGN_GEOMETRIC_PRESENTATION_REPRESENTATION('',(#386)
  ,#189);
#386 = STYLED_ITEM('color',(#387),#30);
#387 = PRESENTATION_STYLE_ASSIGNMENT((#388,#394));
#388 = SURFACE_STYLE_USAGE(.BOTH.,#389);
#389 = SURFACE_SIDE_STYLE('',(#390));
#390 = SURFACE_STYLE_FILL_AREA(#391);
#391 = FILL_AREA_STYLE('',(#392));
#392 = FILL_AREA_STYLE_COLOUR('',#393);
#393 = COLOUR_RGB('',0.800000011921,0.800000011921,0.800000011921);
#394 = CURVE_STYLE('',#395,POSITIVE_LENGTH_MEASURE(0.1),#393);
#395 = DRAUGHTING_PRE_DEFINED_CURVE_FONT('continuous');
#396 = MECHANICAL_DESIGN_GEOMETRIC_PRESENTATION_REPRESENTATION('',(#397)
  ,#367);
#397 = STYLED_ITEM('color',(#398),#208);
#398 = PRESENTATION_STYLE_ASSIGNMENT((#399,#404));
#399 = SURFACE_STYLE_USAGE(.BOTH.,#400);
#400 = SURFACE_SIDE_STYLE('',(#401));
#401 = SURFACE_STYLE_FILL_AREA(#402);
#402 = FILL_AREA_STYLE('',(#403));
#403 = FILL_AREA_STYLE_COLOUR('',#393);
#404 = CURVE_STYLE('',#405,POSITIVE_LENGTH_MEASURE(0.1),#393);
#405 = DRAUGHTING_PRE_DEFINED_CURVE_FONT('continuous');
ENDSEC;
END-ISO-10303-21;
