ISO-10303-21;
HEADER;
FILE_DESCRIPTION (( 'STEP AP203' ),
    '1' );
FILE_NAME ('97325A201.step',
    '2012-03-01T17:42:31',
    ( 'jim' ),
    ( '' ),
    'SwSTEP 2.0',
    'SolidWorks 2009',
    '' );
FILE_SCHEMA (( 'CONFIG_CONTROL_DESIGN' ));
ENDSEC;

DATA;
#1 = ORIENTED_EDGE ( 'NONE', *, *, #2, .T. ) ;
#2 = EDGE_CURVE ( 'NONE', #10, #11, #57, .T. ) ;
#3 = ADVANCED_FACE ( 'NONE', ( #52 ), #51, .F. ) ;
#4 = EDGE_LOOP ( 'NONE', ( #5, #7 ) ) ;
#5 = ORIENTED_EDGE ( 'NONE', *, *, #6, .T. ) ;
#6 = EDGE_CURVE ( 'NONE', #74, #73, #49, .T. ) ;
#7 = ORIENTED_EDGE ( 'NONE', *, *, #72, .T. ) ;
#8 = ORIENTED_EDGE ( 'NONE', *, *, #9, .T. ) ;
#9 = EDGE_CURVE ( 'NONE', #12, #10, #85, .T. ) ;
#10 = VERTEX_POINT ( 'NONE', #125 ) ;
#11 = VERTEX_POINT ( 'NONE', #124 ) ;
#12 = VERTEX_POINT ( 'NONE', #123 ) ;
#13 = ORIENTED_EDGE ( 'NONE', *, *, #58, .F. ) ;
#14 = ORIENTED_EDGE ( 'NONE', *, *, #15, .F. ) ;
#15 = EDGE_CURVE ( 'NONE', #11, #10, #122, .T. ) ;
#16 = ORIENTED_EDGE ( 'NONE', *, *, #17, .F. ) ;
#17 = EDGE_CURVE ( 'NONE', #59, #11, #117, .T. ) ;
#18 = ADVANCED_FACE ( 'NONE', ( #113 ), #112, .T. ) ;
#19 = EDGE_LOOP ( 'NONE', ( #20, #21, #23, #24 ) ) ;
#20 = ORIENTED_EDGE ( 'NONE', *, *, #79, .T. ) ;
#21 = ORIENTED_EDGE ( 'NONE', *, *, #22, .T. ) ;
#22 = EDGE_CURVE ( 'NONE', #84, #11, #107, .T. ) ;
#23 = ORIENTED_EDGE ( 'NONE', *, *, #15, .T. ) ;
#24 = ORIENTED_EDGE ( 'NONE', *, *, #35, .F. ) ;
#25 = ADVANCED_FACE ( 'NONE', ( #103 ), #102, .T. ) ;
#26 = EDGE_LOOP ( 'NONE', ( #27, #29 ) ) ;
#27 = ORIENTED_EDGE ( 'NONE', *, *, #28, .T. ) ;
#28 = EDGE_CURVE ( 'NONE', #59, #12, #96, .T. ) ;
#29 = ORIENTED_EDGE ( 'NONE', *, *, #58, .T. ) ;
#30 = ADVANCED_FACE ( 'NONE', ( #214 ), #213, .T. ) ;
#31 = ORIENTED_EDGE ( 'NONE', *, *, #6, .F. ) ;
#32 = ORIENTED_EDGE ( 'NONE', *, *, #80, .T. ) ;
#33 = ORIENTED_EDGE ( 'NONE', *, *, #40, .F. ) ;
#34 = CLOSED_SHELL ( 'NONE', ( #69, #81, #18, #36, #3, #25, #30, #63 ) ) ;
#35 = EDGE_CURVE ( 'NONE', #77, #10, #208, .T. ) ;
#36 = ADVANCED_FACE ( 'NONE', ( #204 ), #202, .T. ) ;
#37 = EDGE_LOOP ( 'NONE', ( #38, #39, #41, #1 ) ) ;
#38 = ORIENTED_EDGE ( 'NONE', *, *, #22, .F. ) ;
#39 = ORIENTED_EDGE ( 'NONE', *, *, #40, .T. ) ;
#40 = EDGE_CURVE ( 'NONE', #84, #77, #203, .T. ) ;
#41 = ORIENTED_EDGE ( 'NONE', *, *, #35, .T. ) ;
#42 = DIRECTION ( 'NONE',  ( 0.0000000000000000000, 0.0000000000000000000, -1.000000000000000000 ) ) ;
#43 = DIRECTION ( 'NONE',  ( -1.000000000000000000, -0.0000000000000000000, -0.0000000000000000000 ) ) ;
#44 = CARTESIAN_POINT ( 'NONE',  ( -0.6250000000000000000, 0.0000000000000000000, 0.0000000000000000000 ) ) ;
#45 = AXIS2_PLACEMENT_3D ( 'NONE', #44, #43, #42 ) ;
#46 = DIRECTION ( 'NONE',  ( 0.0000000000000000000, 0.0000000000000000000, -1.000000000000000000 ) ) ;
#47 = DIRECTION ( 'NONE',  ( 1.000000000000000000, 0.0000000000000000000, 0.0000000000000000000 ) ) ;
#48 = CARTESIAN_POINT ( 'NONE',  ( -0.6250000000000000000, 0.0000000000000000000, 0.0000000000000000000 ) ) ;
#49 = CIRCLE ( 'NONE', #45, 0.1249999999999994900 ) ;
#50 = AXIS2_PLACEMENT_3D ( 'NONE', #48, #47, #46 ) ;
#51 = PLANE ( 'NONE',  #50 ) ;
#52 = FACE_OUTER_BOUND ( 'NONE', #4, .T. ) ;
#53 = DIRECTION ( 'NONE',  ( 0.0000000000000000000, 0.0000000000000000000, -1.000000000000000000 ) ) ;
#54 = DIRECTION ( 'NONE',  ( -1.000000000000000000, 0.0000000000000000000, 0.0000000000000000000 ) ) ;
#55 = CARTESIAN_POINT ( 'NONE',  ( 0.5937499999999996700, 0.0000000000000000000, 0.0000000000000000000 ) ) ;
#56 = AXIS2_PLACEMENT_3D ( 'NONE', #55, #54, #53 ) ;
#57 = CIRCLE ( 'NONE', #56, 0.1562500000000000000 ) ;
#58 = EDGE_CURVE ( 'NONE', #12, #59, #193, .T. ) ;
#59 = VERTEX_POINT ( 'NONE', #188 ) ;
#60 = ORIENTED_EDGE ( 'NONE', *, *, #28, .F. ) ;
#61 = ORIENTED_EDGE ( 'NONE', *, *, #17, .T. ) ;
#62 = ORIENTED_EDGE ( 'NONE', *, *, #2, .F. ) ;
#63 = ADVANCED_FACE ( 'NONE', ( #187 ), #186, .T. ) ;
#64 = EDGE_LOOP ( 'NONE', ( #65, #31, #32, #33 ) ) ;
#65 = ORIENTED_EDGE ( 'NONE', *, *, #76, .F. ) ;
#66 = EDGE_LOOP ( 'NONE', ( #67, #60, #61, #62 ) ) ;
#67 = ORIENTED_EDGE ( 'NONE', *, *, #9, .F. ) ;
#68 = MANIFOLD_SOLID_BREP ( 'NONE', #34 ) ;
#69 = ADVANCED_FACE ( 'NONE', ( #247 ), #243, .T. ) ;
#70 = EDGE_LOOP ( 'NONE', ( #71, #75, #83, #78 ) ) ;
#71 = ORIENTED_EDGE ( 'NONE', *, *, #72, .F. ) ;
#72 = EDGE_CURVE ( 'NONE', #73, #74, #238, .T. ) ;
#73 = VERTEX_POINT ( 'NONE', #233 ) ;
#74 = VERTEX_POINT ( 'NONE', #232 ) ;
#75 = ORIENTED_EDGE ( 'NONE', *, *, #76, .T. ) ;
#76 = EDGE_CURVE ( 'NONE', #73, #84, #231, .T. ) ;
#77 = VERTEX_POINT ( 'NONE', #227 ) ;
#78 = ORIENTED_EDGE ( 'NONE', *, *, #80, .F. ) ;
#79 = EDGE_CURVE ( 'NONE', #77, #84, #225, .T. ) ;
#80 = EDGE_CURVE ( 'NONE', #74, #77, #226, .T. ) ;
#81 = ADVANCED_FACE ( 'NONE', ( #140 ), #139, .T. ) ;
#82 = EDGE_LOOP ( 'NONE', ( #13, #8, #14, #16 ) ) ;
#83 = ORIENTED_EDGE ( 'NONE', *, *, #79, .F. ) ;
#84 = VERTEX_POINT ( 'NONE', #137 ) ;
#85 = LINE ( 'NONE', #88, #87 ) ;
#86 = DIRECTION ( 'NONE',  ( -0.7071067811865520100, 8.659274570719297500E-017, -0.7071067811865428000 ) ) ;
#87 = VECTOR ( 'NONE', #86, 39.37007874015748900 ) ;
#88 = CARTESIAN_POINT ( 'NONE',  ( 0.6250000000000000000, 1.530757942277971900E-017, -0.1250000000000000300 ) ) ;
#89 = PERSON_AND_ORGANIZATION_ROLE ( 'design_owner' ) ;
#90 = PERSON_AND_ORGANIZATION ( #92, #91 ) ;
#91 = ORGANIZATION ( 'UNSPECIFIED', 'UNSPECIFIED', '' ) ;
#92 = PERSON ( 'UNSPECIFIED', 'UNSPECIFIED', 'UNSPECIFIED', ('UNSPECIFIED'), ('UNSPECIFIED'), ('UNSPECIFIED') ) ;
#93 = PRODUCT ( '97325A201', '97325A201', '', ( #94 ) ) ;
#94 = MECHANICAL_CONTEXT ( 'NONE', #251, 'mechanical' ) ;
#95 = APPLICATION_PROTOCOL_DEFINITION ( 'international standard', 'config_control_design', 1994, #251 ) ;
#96 = CIRCLE ( 'NONE', #217, 0.1250000000000000300 ) ;
#97 = DIRECTION ( 'NONE',  ( 0.0000000000000000000, 0.0000000000000000000, -1.000000000000000000 ) ) ;
#98 = DIRECTION ( 'NONE',  ( 1.000000000000000000, 0.0000000000000000000, 0.0000000000000000000 ) ) ;
#99 = CARTESIAN_POINT ( 'NONE',  ( 0.6250000000000000000, 0.0000000000000000000, 0.0000000000000000000 ) ) ;
#100 = CARTESIAN_POINT ( 'NONE',  ( 0.6250000000000000000, 0.0000000000000000000, 0.0000000000000000000 ) ) ;
#101 = AXIS2_PLACEMENT_3D ( 'NONE', #99, #98, #97 ) ;
#102 = PLANE ( 'NONE',  #101 ) ;
#103 = FACE_OUTER_BOUND ( 'NONE', #26, .T. ) ;
#104 = DIRECTION ( 'NONE',  ( 1.000000000000000000, 0.0000000000000000000, 0.0000000000000000000 ) ) ;
#105 = VECTOR ( 'NONE', #104, 39.37007874015748100 ) ;
#106 = CARTESIAN_POINT ( 'NONE',  ( -0.6250000000000000000, 1.913447427847464800E-017, 0.1562500000000000000 ) ) ;
#107 = LINE ( 'NONE', #106, #105 ) ;
#108 = DIRECTION ( 'NONE',  ( 0.0000000000000000000, 0.0000000000000000000, -1.000000000000000000 ) ) ;
#109 = DIRECTION ( 'NONE',  ( 1.000000000000000000, 0.0000000000000000000, 0.0000000000000000000 ) ) ;
#110 = AXIS2_PLACEMENT_3D ( 'NONE', #111, #109, #108 ) ;
#111 = CARTESIAN_POINT ( 'NONE',  ( -0.6250000000000000000, 0.0000000000000000000, 0.0000000000000000000 ) ) ;
#112 = CYLINDRICAL_SURFACE ( 'NONE', #110, 0.1562500000000000000 ) ;
#113 = FACE_OUTER_BOUND ( 'NONE', #19, .T. ) ;
#114 = DIRECTION ( 'NONE',  ( -0.7071067811865520100, 0.0000000000000000000, 0.7071067811865428000 ) ) ;
#115 = VECTOR ( 'NONE', #114, 39.37007874015748900 ) ;
#116 = CARTESIAN_POINT ( 'NONE',  ( 0.6250000000000000000, 0.0000000000000000000, 0.1250000000000000300 ) ) ;
#117 = LINE ( 'NONE', #116, #115 ) ;
#118 = DIRECTION ( 'NONE',  ( 0.0000000000000000000, 0.0000000000000000000, -1.000000000000000000 ) ) ;
#119 = DIRECTION ( 'NONE',  ( -1.000000000000000000, 0.0000000000000000000, 0.0000000000000000000 ) ) ;
#120 = CARTESIAN_POINT ( 'NONE',  ( 0.5937499999999996700, 0.0000000000000000000, 0.0000000000000000000 ) ) ;
#121 = AXIS2_PLACEMENT_3D ( 'NONE', #120, #119, #118 ) ;
#122 = CIRCLE ( 'NONE', #121, 0.1562500000000000000 ) ;
#123 = CARTESIAN_POINT ( 'NONE',  ( 0.6250000000000000000, 1.722102685062718300E-017, -0.1250000000000000300 ) ) ;
#124 = CARTESIAN_POINT ( 'NONE',  ( 0.5937499999999996700, 1.913447427847464800E-017, 0.1562500000000000000 ) ) ;
#125 = CARTESIAN_POINT ( 'NONE',  ( 0.5937499999999996700, 0.0000000000000000000, -0.1562500000000000000 ) ) ;
#126 = UNCERTAINTY_MEASURE_WITH_UNIT (LENGTH_MEASURE( 1.000000000000000100E-005 ), #129, 'distance_accuracy_value', 'NONE');
#127 =( NAMED_UNIT ( * ) SI_UNIT ( $, .STERADIAN. ) SOLID_ANGLE_UNIT ( ) );
#128 =( NAMED_UNIT ( * ) PLANE_ANGLE_UNIT ( ) SI_UNIT ( $, .RADIAN. ) );
#129 =( CONVERSION_BASED_UNIT ( 'INCH', #130 ) LENGTH_UNIT ( ) NAMED_UNIT ( #131 ) );
#130 = LENGTH_MEASURE_WITH_UNIT ( LENGTH_MEASURE( 0.02539999999999999900 ), #132 );
#131 = DIMENSIONAL_EXPONENTS ( 1.000000000000000000, 0.0000000000000000000, 0.0000000000000000000, 0.0000000000000000000, 0.0000000000000000000, 0.0000000000000000000, 0.0000000000000000000 ) ;
#132 =( LENGTH_UNIT ( ) NAMED_UNIT ( * ) SI_UNIT ( $, .METRE. ) );
#133 = CARTESIAN_POINT ( 'NONE',  ( 0.0000000000000000000, 0.0000000000000000000, 0.0000000000000000000 ) ) ;
#134 = DIRECTION ( 'NONE',  ( 0.0000000000000000000, 0.0000000000000000000, 1.000000000000000000 ) ) ;
#135 = DIRECTION ( 'NONE',  ( -1.000000000000000000, 0.0000000000000000000, 0.0000000000000000000 ) ) ;
#136 = AXIS2_PLACEMENT_3D ( 'NONE', #138, #135, #134 ) ;
#137 = CARTESIAN_POINT ( 'NONE',  ( -0.5937499999999997800, 1.913447427847464800E-017, 0.1562500000000000000 ) ) ;
#138 = CARTESIAN_POINT ( 'NONE',  ( 0.6250000000000000000, 0.0000000000000000000, 0.0000000000000000000 ) ) ;
#139 = CONICAL_SURFACE ( 'NONE', #136, 0.1250000000000000300, 0.7853981633974418400 ) ;
#140 = FACE_OUTER_BOUND ( 'NONE', #82, .T. ) ;
#141 = SECURITY_CLASSIFICATION_LEVEL ( 'unclassified' ) ;
#142 = CC_DESIGN_PERSON_AND_ORGANIZATION_ASSIGNMENT ( #144, #143, ( #159 ) ) ;
#143 = PERSON_AND_ORGANIZATION_ROLE ( 'design_supplier' ) ;
#144 = PERSON_AND_ORGANIZATION ( #92, #91 ) ;
#145 = CC_DESIGN_PERSON_AND_ORGANIZATION_ASSIGNMENT ( #147, #146, ( #159 ) ) ;
#146 = PERSON_AND_ORGANIZATION_ROLE ( 'creator' ) ;
#147 = PERSON_AND_ORGANIZATION ( #92, #91 ) ;
#148 = CC_DESIGN_APPROVAL ( #156, ( #159 ) ) ;
#149 = APPROVAL_DATE_TIME ( #150, #156 ) ;
#150 = DATE_AND_TIME ( #151, #152 ) ;
#151 = CALENDAR_DATE ( 2012, 1, 3 ) ;
#152 = LOCAL_TIME ( 11, 42, 31.00000000000000000, #153 ) ;
#153 = COORDINATED_UNIVERSAL_TIME_OFFSET ( 6, 0, .BEHIND. ) ;
#154 = APPROVAL_PERSON_ORGANIZATION ( #158, #156, #155 ) ;
#155 = APPROVAL_ROLE ( '' ) ;
#156 = APPROVAL ( #157, 'UNSPECIFIED' ) ;
#157 = APPROVAL_STATUS ( 'not_yet_approved' ) ;
#158 = PERSON_AND_ORGANIZATION ( #92, #91 ) ;
#159 = PRODUCT_DEFINITION_FORMATION_WITH_SPECIFIED_SOURCE ( 'ANY', '', #93, .NOT_KNOWN. ) ;
#160 = CC_DESIGN_DATE_AND_TIME_ASSIGNMENT ( #162, #161, ( #180 ) ) ;
#161 = DATE_TIME_ROLE ( 'creation_date' ) ;
#162 = DATE_AND_TIME ( #163, #164 ) ;
#163 = CALENDAR_DATE ( 2012, 1, 3 ) ;
#164 = LOCAL_TIME ( 11, 42, 31.00000000000000000, #165 ) ;
#165 = COORDINATED_UNIVERSAL_TIME_OFFSET ( 6, 0, .BEHIND. ) ;
#166 = CC_DESIGN_PERSON_AND_ORGANIZATION_ASSIGNMENT ( #168, #167, ( #180 ) ) ;
#167 = PERSON_AND_ORGANIZATION_ROLE ( 'creator' ) ;
#168 = PERSON_AND_ORGANIZATION ( #92, #91 ) ;
#169 = CC_DESIGN_APPROVAL ( #177, ( #180 ) ) ;
#170 = APPROVAL_DATE_TIME ( #171, #177 ) ;
#171 = DATE_AND_TIME ( #172, #173 ) ;
#172 = CALENDAR_DATE ( 2012, 1, 3 ) ;
#173 = LOCAL_TIME ( 11, 42, 31.00000000000000000, #174 ) ;
#174 = COORDINATED_UNIVERSAL_TIME_OFFSET ( 6, 0, .BEHIND. ) ;
#175 = APPROVAL_PERSON_ORGANIZATION ( #179, #177, #176 ) ;
#176 = APPROVAL_ROLE ( '' ) ;
#177 = APPROVAL ( #178, 'UNSPECIFIED' ) ;
#178 = APPROVAL_STATUS ( 'not_yet_approved' ) ;
#179 = PERSON_AND_ORGANIZATION ( #92, #91 ) ;
#180 = PRODUCT_DEFINITION ( 'UNKNOWN', '', #159, #181 ) ;
#181 = DESIGN_CONTEXT ( 'detailed design', #183, 'design' ) ;
#182 = APPLICATION_PROTOCOL_DEFINITION ( 'international standard', 'config_control_design', 1994, #183 ) ;
#183 = APPLICATION_CONTEXT ( 'configuration controlled 3d designs of mechanical parts and assemblies' ) ;
#184 = CC_DESIGN_PERSON_AND_ORGANIZATION_ASSIGNMENT ( #90, #89, ( #93 ) ) ;
#185 = CARTESIAN_POINT ( 'NONE',  ( -0.5937499999999997800, 0.0000000000000000000, 0.0000000000000000000 ) ) ;
#186 = CONICAL_SURFACE ( 'NONE', #246, 0.1562500000000000000, 0.7853981633974526100 ) ;
#187 = FACE_OUTER_BOUND ( 'NONE', #64, .T. ) ;
#188 = CARTESIAN_POINT ( 'NONE',  ( 0.6250000000000000000, 0.0000000000000000000, 0.1250000000000000300 ) ) ;
#189 = DIRECTION ( 'NONE',  ( 0.0000000000000000000, 0.0000000000000000000, -1.000000000000000000 ) ) ;
#190 = DIRECTION ( 'NONE',  ( 1.000000000000000000, 0.0000000000000000000, 0.0000000000000000000 ) ) ;
#191 = CARTESIAN_POINT ( 'NONE',  ( 0.6250000000000000000, 0.0000000000000000000, 0.0000000000000000000 ) ) ;
#192 = AXIS2_PLACEMENT_3D ( 'NONE', #191, #190, #189 ) ;
#193 = CIRCLE ( 'NONE', #192, 0.1250000000000000300 ) ;
#194 = DIRECTION ( 'NONE',  ( 0.0000000000000000000, 0.0000000000000000000, -1.000000000000000000 ) ) ;
#195 = DIRECTION ( 'NONE',  ( 1.000000000000000000, -0.0000000000000000000, -0.0000000000000000000 ) ) ;
#196 = CARTESIAN_POINT ( 'NONE',  ( -0.5937499999999997800, 0.0000000000000000000, 0.0000000000000000000 ) ) ;
#197 = AXIS2_PLACEMENT_3D ( 'NONE', #196, #195, #194 ) ;
#198 = DIRECTION ( 'NONE',  ( 0.0000000000000000000, 0.0000000000000000000, -1.000000000000000000 ) ) ;
#199 = DIRECTION ( 'NONE',  ( 1.000000000000000000, 0.0000000000000000000, 0.0000000000000000000 ) ) ;
#200 = CARTESIAN_POINT ( 'NONE',  ( -0.6250000000000000000, 0.0000000000000000000, 0.0000000000000000000 ) ) ;
#201 = AXIS2_PLACEMENT_3D ( 'NONE', #200, #199, #198 ) ;
#202 = CYLINDRICAL_SURFACE ( 'NONE', #201, 0.1562500000000000000 ) ;
#203 = CIRCLE ( 'NONE', #197, 0.1562500000000000000 ) ;
#204 = FACE_OUTER_BOUND ( 'NONE', #37, .T. ) ;
#205 = DIRECTION ( 'NONE',  ( 1.000000000000000000, 0.0000000000000000000, 0.0000000000000000000 ) ) ;
#206 = VECTOR ( 'NONE', #205, 39.37007874015748100 ) ;
#207 = CARTESIAN_POINT ( 'NONE',  ( -0.6250000000000000000, 0.0000000000000000000, -0.1562500000000000000 ) ) ;
#208 = LINE ( 'NONE', #207, #206 ) ;
#209 = DIRECTION ( 'NONE',  ( 0.0000000000000000000, 0.0000000000000000000, 1.000000000000000000 ) ) ;
#210 = DIRECTION ( 'NONE',  ( -1.000000000000000000, 0.0000000000000000000, 0.0000000000000000000 ) ) ;
#211 = AXIS2_PLACEMENT_3D ( 'NONE', #212, #210, #209 ) ;
#212 = CARTESIAN_POINT ( 'NONE',  ( 0.6250000000000000000, 0.0000000000000000000, 0.0000000000000000000 ) ) ;
#213 = CONICAL_SURFACE ( 'NONE', #211, 0.1250000000000000300, 0.7853981633974418400 ) ;
#214 = FACE_OUTER_BOUND ( 'NONE', #66, .T. ) ;
#215 = DIRECTION ( 'NONE',  ( 0.0000000000000000000, 0.0000000000000000000, -1.000000000000000000 ) ) ;
#216 = DIRECTION ( 'NONE',  ( 1.000000000000000000, 0.0000000000000000000, 0.0000000000000000000 ) ) ;
#217 = AXIS2_PLACEMENT_3D ( 'NONE', #100, #216, #215 ) ;
#218 = DIRECTION ( 'NONE',  ( 0.7071067811865444600, 0.0000000000000000000, -0.7071067811865505700 ) ) ;
#219 = VECTOR ( 'NONE', #218, 39.37007874015748900 ) ;
#220 = CARTESIAN_POINT ( 'NONE',  ( -0.5937499999999997800, 0.0000000000000000000, -0.1562500000000000000 ) ) ;
#221 = DIRECTION ( 'NONE',  ( 0.0000000000000000000, 0.0000000000000000000, -1.000000000000000000 ) ) ;
#222 = DIRECTION ( 'NONE',  ( 1.000000000000000000, -0.0000000000000000000, -0.0000000000000000000 ) ) ;
#223 = CARTESIAN_POINT ( 'NONE',  ( -0.5937499999999997800, 0.0000000000000000000, 0.0000000000000000000 ) ) ;
#224 = AXIS2_PLACEMENT_3D ( 'NONE', #223, #222, #221 ) ;
#225 = CIRCLE ( 'NONE', #224, 0.1562500000000000000 ) ;
#226 = LINE ( 'NONE', #220, #219 ) ;
#227 = CARTESIAN_POINT ( 'NONE',  ( -0.5937499999999997800, 0.0000000000000000000, -0.1562500000000000000 ) ) ;
#228 = DIRECTION ( 'NONE',  ( 0.7071067811865444600, 8.659274570719392400E-017, 0.7071067811865505700 ) ) ;
#229 = VECTOR ( 'NONE', #228, 39.37007874015748900 ) ;
#230 = CARTESIAN_POINT ( 'NONE',  ( -0.5937499999999997800, 1.913447427847464800E-017, 0.1562500000000000000 ) ) ;
#231 = LINE ( 'NONE', #230, #229 ) ;
#232 = CARTESIAN_POINT ( 'NONE',  ( -0.6250000000000000000, 0.0000000000000000000, -0.1249999999999994900 ) ) ;
#233 = CARTESIAN_POINT ( 'NONE',  ( -0.6250000000000000000, 1.722102685062715200E-017, 0.1249999999999994900 ) ) ;
#234 = DIRECTION ( 'NONE',  ( 0.0000000000000000000, 0.0000000000000000000, -1.000000000000000000 ) ) ;
#235 = DIRECTION ( 'NONE',  ( -1.000000000000000000, -0.0000000000000000000, -0.0000000000000000000 ) ) ;
#236 = CARTESIAN_POINT ( 'NONE',  ( -0.6250000000000000000, 0.0000000000000000000, 0.0000000000000000000 ) ) ;
#237 = AXIS2_PLACEMENT_3D ( 'NONE', #236, #235, #234 ) ;
#238 = CIRCLE ( 'NONE', #237, 0.1249999999999994900 ) ;
#239 = DIRECTION ( 'NONE',  ( 0.0000000000000000000, 0.0000000000000000000, -1.000000000000000000 ) ) ;
#240 = DIRECTION ( 'NONE',  ( 1.000000000000000000, -0.0000000000000000000, -0.0000000000000000000 ) ) ;
#241 = AXIS2_PLACEMENT_3D ( 'NONE', #242, #240, #239 ) ;
#242 = CARTESIAN_POINT ( 'NONE',  ( -0.5937499999999997800, 0.0000000000000000000, 0.0000000000000000000 ) ) ;
#243 = CONICAL_SURFACE ( 'NONE', #241, 0.1562500000000000000, 0.7853981633974526100 ) ;
#244 = DIRECTION ( 'NONE',  ( 0.0000000000000000000, 0.0000000000000000000, -1.000000000000000000 ) ) ;
#245 = DIRECTION ( 'NONE',  ( 1.000000000000000000, -0.0000000000000000000, -0.0000000000000000000 ) ) ;
#246 = AXIS2_PLACEMENT_3D ( 'NONE', #185, #245, #244 ) ;
#247 = FACE_OUTER_BOUND ( 'NONE', #70, .T. ) ;
#248 = AXIS2_PLACEMENT_3D ( 'NONE', #133, #250, #249 ) ;
#249 = DIRECTION ( 'NONE',  ( 1.000000000000000000, 0.0000000000000000000, 0.0000000000000000000 ) ) ;
#250 = DIRECTION ( 'NONE',  ( 0.0000000000000000000, 0.0000000000000000000, 1.000000000000000000 ) ) ;
#251 = APPLICATION_CONTEXT ( 'configuration controlled 3d designs of mechanical parts and assemblies' ) ;
#252 = ADVANCED_BREP_SHAPE_REPRESENTATION ( '97325A201', ( #68, #248 ), #253 ) ;
#253 =( GEOMETRIC_REPRESENTATION_CONTEXT ( 3 ) GLOBAL_UNCERTAINTY_ASSIGNED_CONTEXT ( ( #126 ) ) GLOBAL_UNIT_ASSIGNED_CONTEXT ( ( #129, #128, #127 ) ) REPRESENTATION_CONTEXT ( 'NONE', 'WORKASPACE' ) );
#254 = CC_DESIGN_SECURITY_CLASSIFICATION ( #277, ( #159 ) ) ;
#255 = CC_DESIGN_APPROVAL ( #261, ( #277 ) ) ;
#256 = APPROVAL_PERSON_ORGANIZATION ( #272, #261, #269 ) ;
#257 = DATE_AND_TIME ( #258, #268 ) ;
#258 = CALENDAR_DATE ( 2012, 1, 3 ) ;
#259 = APPROVAL_STATUS ( 'not_yet_approved' ) ;
#260 = PRODUCT_DEFINITION_SHAPE ( 'NONE', 'NONE',  #180 ) ;
#261 = APPROVAL ( #259, 'UNSPECIFIED' ) ;
#262 = CC_DESIGN_DATE_AND_TIME_ASSIGNMENT ( #263, #271, ( #277 ) ) ;
#263 = DATE_AND_TIME ( #265, #274 ) ;
#264 = COORDINATED_UNIVERSAL_TIME_OFFSET ( 6, 0, .BEHIND. ) ;
#265 = CALENDAR_DATE ( 2012, 1, 3 ) ;
#266 = PRODUCT_RELATED_PRODUCT_CATEGORY ( 'detail', '', ( #93 ) ) ;
#267 = APPROVAL_DATE_TIME ( #257, #261 ) ;
#268 = LOCAL_TIME ( 11, 42, 31.00000000000000000, #270 ) ;
#269 = APPROVAL_ROLE ( '' ) ;
#270 = COORDINATED_UNIVERSAL_TIME_OFFSET ( 6, 0, .BEHIND. ) ;
#271 = DATE_TIME_ROLE ( 'classification_date' ) ;
#272 = PERSON_AND_ORGANIZATION ( #92, #91 ) ;
#273 = SHAPE_DEFINITION_REPRESENTATION ( #260, #252 ) ;
#274 = LOCAL_TIME ( 11, 42, 31.00000000000000000, #264 ) ;
#275 = PERSON_AND_ORGANIZATION_ROLE ( 'classification_officer' ) ;
#276 = CC_DESIGN_PERSON_AND_ORGANIZATION_ASSIGNMENT ( #278, #275, ( #277 ) ) ;
#277 = SECURITY_CLASSIFICATION ( '', '', #141 ) ;
#278 = PERSON_AND_ORGANIZATION ( #92, #91 ) ;
ENDSEC;
END-ISO-10303-21;
