ISO-10303-21;
HEADER;
FILE_DESCRIPTION (( 'STEP AP203' ),
    '1' );
FILE_NAME ('6061K417.step',
    '2012-03-23T13:13:17',
    ( 'jim' ),
    ( '' ),
    'SwSTEP 2.0',
    'SolidWorks 2009',
    '' );
FILE_SCHEMA (( 'CONFIG_CONTROL_DESIGN' ));
ENDSEC;

DATA;
#1 = DIRECTION ( 'NONE',  ( 0.0000000000000000000, 0.0000000000000000000, -1.000000000000000000 ) ) ;
#2 = DIMENSIONAL_EXPONENTS ( 1.000000000000000000, 0.0000000000000000000, 0.0000000000000000000, 0.0000000000000000000, 0.0000000000000000000, 0.0000000000000000000, 0.0000000000000000000 ) ;
#3 = DIRECTION ( 'NONE',  ( 0.0000000000000000000, 0.0000000000000000000, -1.000000000000000000 ) ) ;
#4 = CARTESIAN_POINT ( 'NONE',  ( -10.00000000000000000, 0.0000000000000000000, 0.0000000000000000000 ) ) ;
#5 = AXIS2_PLACEMENT_3D ( 'NONE', #4, #9, #8 ) ;
#6 =( CONVERSION_BASED_UNIT ( 'INCH', #7 ) LENGTH_UNIT ( ) NAMED_UNIT ( #2 ) );
#7 = LENGTH_MEASURE_WITH_UNIT ( LENGTH_MEASURE( 0.02539999999999999900 ), #27 );
#8 = DIRECTION ( 'NONE',  ( 0.0000000000000000000, 0.0000000000000000000, -1.000000000000000000 ) ) ;
#9 = DIRECTION ( 'NONE',  ( 1.000000000000000000, 0.0000000000000000000, 0.0000000000000000000 ) ) ;
#10 = CARTESIAN_POINT ( 'NONE',  ( 10.00000000000000000, 0.0000000000000000000, 0.09999999999999731300 ) ) ;
#11 = PLANE ( 'NONE',  #5 ) ;
#12 = FACE_OUTER_BOUND ( 'NONE', #178, .T. ) ;
#13 =( NAMED_UNIT ( * ) SI_UNIT ( $, .STERADIAN. ) SOLID_ANGLE_UNIT ( ) );
#14 =( NAMED_UNIT ( * ) PLANE_ANGLE_UNIT ( ) SI_UNIT ( $, .RADIAN. ) );
#15 = UNCERTAINTY_MEASURE_WITH_UNIT (LENGTH_MEASURE( 1.000000000000000100E-005 ), #6, 'distance_accuracy_value', 'NONE');
#16 =( GEOMETRIC_REPRESENTATION_CONTEXT ( 3 ) GLOBAL_UNCERTAINTY_ASSIGNED_CONTEXT ( ( #15 ) ) GLOBAL_UNIT_ASSIGNED_CONTEXT ( ( #6, #14, #13 ) ) REPRESENTATION_CONTEXT ( 'NONE', 'WORKASPACE' ) );
#17 = ADVANCED_BREP_SHAPE_REPRESENTATION ( '6061K417', ( #138, #58 ), #16 ) ;
#18 = CIRCLE ( 'NONE', #26, 0.1000000000000060600 ) ;
#19 = CARTESIAN_POINT ( 'NONE',  ( -10.00000000000000000, 0.0000000000000000000, 0.0000000000000000000 ) ) ;
#20 = DIRECTION ( 'NONE',  ( 1.000000000000000000, -0.0000000000000000000, -0.0000000000000000000 ) ) ;
#21 = CARTESIAN_POINT ( 'NONE',  ( -9.975000000000006800, 0.0000000000000000000, 0.0000000000000000000 ) ) ;
#22 = AXIS2_PLACEMENT_3D ( 'NONE', #21, #20, #1 ) ;
#23 = CIRCLE ( 'NONE', #22, 0.1250000000000000600 ) ;
#24 = DIRECTION ( 'NONE',  ( 0.0000000000000000000, 0.0000000000000000000, -1.000000000000000000 ) ) ;
#25 = DIRECTION ( 'NONE',  ( -1.000000000000000000, -0.0000000000000000000, -0.0000000000000000000 ) ) ;
#26 = AXIS2_PLACEMENT_3D ( 'NONE', #19, #25, #24 ) ;
#27 =( LENGTH_UNIT ( ) NAMED_UNIT ( * ) SI_UNIT ( $, .METRE. ) );
#28 = DIRECTION ( 'NONE',  ( 0.0000000000000000000, 0.0000000000000000000, -1.000000000000000000 ) ) ;
#29 = DIRECTION ( 'NONE',  ( -1.000000000000000000, 0.0000000000000000000, 0.0000000000000000000 ) ) ;
#30 = CARTESIAN_POINT ( 'NONE',  ( 9.974999999999994300, 0.0000000000000000000, 0.0000000000000000000 ) ) ;
#31 = AXIS2_PLACEMENT_3D ( 'NONE', #30, #29, #28 ) ;
#32 = CIRCLE ( 'NONE', #31, 0.1250000000000000600 ) ;
#33 = APPLICATION_CONTEXT ( 'configuration controlled 3d designs of mechanical parts and assemblies' ) ;
#34 = PRODUCT ( '6061K417', '6061K417', '', ( #35 ) ) ;
#35 = MECHANICAL_CONTEXT ( 'NONE', #33, 'mechanical' ) ;
#36 = APPLICATION_PROTOCOL_DEFINITION ( 'international standard', 'config_control_design', 1994, #33 ) ;
#37 = LOCAL_TIME ( 8, 13, 17.00000000000000000, #38 ) ;
#38 = COORDINATED_UNIVERSAL_TIME_OFFSET ( 6, 0, .BEHIND. ) ;
#39 = CC_DESIGN_APPROVAL ( #51, ( #54 ) ) ;
#40 = DATE_AND_TIME ( #42, #37 ) ;
#41 = APPROVAL_DATE_TIME ( #40, #51 ) ;
#42 = CALENDAR_DATE ( 2012, 23, 3 ) ;
#43 = PERSON_AND_ORGANIZATION ( #59, #44 ) ;
#44 = ORGANIZATION ( 'UNSPECIFIED', 'UNSPECIFIED', '' ) ;
#45 = PERSON_AND_ORGANIZATION_ROLE ( 'design_owner' ) ;
#46 = CARTESIAN_POINT ( 'NONE',  ( 0.0000000000000000000, 0.0000000000000000000, 0.0000000000000000000 ) ) ;
#47 = CC_DESIGN_PERSON_AND_ORGANIZATION_ASSIGNMENT ( #43, #45, ( #34 ) ) ;
#48 = DIRECTION ( 'NONE',  ( 1.000000000000000000, 0.0000000000000000000, 0.0000000000000000000 ) ) ;
#49 = APPROVAL_PERSON_ORGANIZATION ( #53, #51, #50 ) ;
#50 = APPROVAL_ROLE ( '' ) ;
#51 = APPROVAL ( #52, 'UNSPECIFIED' ) ;
#52 = APPROVAL_STATUS ( 'not_yet_approved' ) ;
#53 = PERSON_AND_ORGANIZATION ( #59, #44 ) ;
#54 = PRODUCT_DEFINITION ( 'UNKNOWN', '', #72, #55 ) ;
#55 = DESIGN_CONTEXT ( 'detailed design', #57, 'design' ) ;
#56 = APPLICATION_PROTOCOL_DEFINITION ( 'international standard', 'config_control_design', 1994, #57 ) ;
#57 = APPLICATION_CONTEXT ( 'configuration controlled 3d designs of mechanical parts and assemblies' ) ;
#58 = AXIS2_PLACEMENT_3D ( 'NONE', #46, #60, #48 ) ;
#59 = PERSON ( 'UNSPECIFIED', 'UNSPECIFIED', 'UNSPECIFIED', ('UNSPECIFIED'), ('UNSPECIFIED'), ('UNSPECIFIED') ) ;
#60 = DIRECTION ( 'NONE',  ( 0.0000000000000000000, 0.0000000000000000000, 1.000000000000000000 ) ) ;
#61 = APPROVAL_STATUS ( 'not_yet_approved' ) ;
#62 = PERSON_AND_ORGANIZATION ( #59, #44 ) ;
#63 = CC_DESIGN_DATE_AND_TIME_ASSIGNMENT ( #65, #64, ( #90 ) ) ;
#64 = DATE_TIME_ROLE ( 'classification_date' ) ;
#65 = DATE_AND_TIME ( #78, #79 ) ;
#66 = CC_DESIGN_PERSON_AND_ORGANIZATION_ASSIGNMENT ( #77, #98, ( #54 ) ) ;
#67 = PERSON_AND_ORGANIZATION ( #59, #44 ) ;
#68 = CC_DESIGN_PERSON_AND_ORGANIZATION_ASSIGNMENT ( #70, #69, ( #72 ) ) ;
#69 = PERSON_AND_ORGANIZATION_ROLE ( 'creator' ) ;
#70 = PERSON_AND_ORGANIZATION ( #59, #44 ) ;
#71 = COORDINATED_UNIVERSAL_TIME_OFFSET ( 6, 0, .BEHIND. ) ;
#72 = PRODUCT_DEFINITION_FORMATION_WITH_SPECIFIED_SOURCE ( 'ANY', '', #34, .NOT_KNOWN. ) ;
#73 = CC_DESIGN_DATE_AND_TIME_ASSIGNMENT ( #80, #85, ( #54 ) ) ;
#74 = CALENDAR_DATE ( 2012, 23, 3 ) ;
#75 = CC_DESIGN_PERSON_AND_ORGANIZATION_ASSIGNMENT ( #67, #76, ( #72 ) ) ;
#76 = PERSON_AND_ORGANIZATION_ROLE ( 'design_supplier' ) ;
#77 = PERSON_AND_ORGANIZATION ( #59, #44 ) ;
#78 = CALENDAR_DATE ( 2012, 23, 3 ) ;
#79 = LOCAL_TIME ( 8, 13, 17.00000000000000000, #87 ) ;
#80 = DATE_AND_TIME ( #74, #81 ) ;
#81 = LOCAL_TIME ( 8, 13, 17.00000000000000000, #71 ) ;
#82 = APPROVAL_PERSON_ORGANIZATION ( #62, #84, #83 ) ;
#83 = APPROVAL_ROLE ( '' ) ;
#84 = APPROVAL ( #61, 'UNSPECIFIED' ) ;
#85 = DATE_TIME_ROLE ( 'creation_date' ) ;
#86 = CC_DESIGN_APPROVAL ( #113, ( #72 ) ) ;
#87 = COORDINATED_UNIVERSAL_TIME_OFFSET ( 6, 0, .BEHIND. ) ;
#88 = CC_DESIGN_PERSON_AND_ORGANIZATION_ASSIGNMENT ( #108, #89, ( #90 ) ) ;
#89 = PERSON_AND_ORGANIZATION_ROLE ( 'classification_officer' ) ;
#90 = SECURITY_CLASSIFICATION ( '', '', #109 ) ;
#91 = CC_DESIGN_SECURITY_CLASSIFICATION ( #90, ( #72 ) ) ;
#92 = CC_DESIGN_APPROVAL ( #84, ( #90 ) ) ;
#93 = APPROVAL_DATE_TIME ( #94, #84 ) ;
#94 = DATE_AND_TIME ( #95, #96 ) ;
#95 = CALENDAR_DATE ( 2012, 23, 3 ) ;
#96 = LOCAL_TIME ( 8, 13, 17.00000000000000000, #97 ) ;
#97 = COORDINATED_UNIVERSAL_TIME_OFFSET ( 6, 0, .BEHIND. ) ;
#98 = PERSON_AND_ORGANIZATION_ROLE ( 'creator' ) ;
#99 = SHAPE_DEFINITION_REPRESENTATION ( #100, #17 ) ;
#100 = PRODUCT_DEFINITION_SHAPE ( 'NONE', 'NONE',  #54 ) ;
#101 = APPROVAL_DATE_TIME ( #102, #113 ) ;
#102 = DATE_AND_TIME ( #103, #104 ) ;
#103 = CALENDAR_DATE ( 2012, 23, 3 ) ;
#104 = LOCAL_TIME ( 8, 13, 17.00000000000000000, #110 ) ;
#105 = PRODUCT_RELATED_PRODUCT_CATEGORY ( 'detail', '', ( #34 ) ) ;
#106 = APPROVAL_STATUS ( 'not_yet_approved' ) ;
#107 = PERSON_AND_ORGANIZATION ( #59, #44 ) ;
#108 = PERSON_AND_ORGANIZATION ( #59, #44 ) ;
#109 = SECURITY_CLASSIFICATION_LEVEL ( 'unclassified' ) ;
#110 = COORDINATED_UNIVERSAL_TIME_OFFSET ( 6, 0, .BEHIND. ) ;
#111 = APPROVAL_PERSON_ORGANIZATION ( #107, #113, #112 ) ;
#112 = APPROVAL_ROLE ( '' ) ;
#113 = APPROVAL ( #106, 'UNSPECIFIED' ) ;
#114 = ORIENTED_EDGE ( 'NONE', *, *, #170, .F. ) ;
#115 = ORIENTED_EDGE ( 'NONE', *, *, #119, .F. ) ;
#116 = EDGE_LOOP ( 'NONE', ( #114, #115, #141, #142 ) ) ;
#117 = ADVANCED_FACE ( 'NONE', ( #202 ), #203, .T. ) ;
#118 = ORIENTED_EDGE ( 'NONE', *, *, #172, .T. ) ;
#119 = EDGE_CURVE ( 'NONE', #174, #158, #195, .T. ) ;
#120 = VERTEX_POINT ( 'NONE', #207 ) ;
#121 = AXIS2_PLACEMENT_3D ( 'NONE', #123, #124, #3 ) ;
#122 = CIRCLE ( 'NONE', #121, 0.09999999999999731300 ) ;
#123 = CARTESIAN_POINT ( 'NONE',  ( 10.00000000000000000, 0.0000000000000000000, 0.0000000000000000000 ) ) ;
#124 = DIRECTION ( 'NONE',  ( 1.000000000000000000, 0.0000000000000000000, 0.0000000000000000000 ) ) ;
#125 = ORIENTED_EDGE ( 'NONE', *, *, #127, .F. ) ;
#126 = VERTEX_POINT ( 'NONE', #206 ) ;
#127 = EDGE_CURVE ( 'NONE', #120, #126, #212, .T. ) ;
#128 = CLOSED_SHELL ( 'NONE', ( #132, #157, #153, #159, #176, #155, #117, #143 ) ) ;
#129 = EDGE_CURVE ( 'NONE', #135, #137, #209, .T. ) ;
#130 = ORIENTED_EDGE ( 'NONE', *, *, #177, .F. ) ;
#131 = ORIENTED_EDGE ( 'NONE', *, *, #129, .F. ) ;
#132 = ADVANCED_FACE ( 'NONE', ( #214 ), #240, .T. ) ;
#133 = ORIENTED_EDGE ( 'NONE', *, *, #139, .T. ) ;
#134 = ORIENTED_EDGE ( 'NONE', *, *, #165, .T. ) ;
#135 = VERTEX_POINT ( 'NONE', #227 ) ;
#136 = ORIENTED_EDGE ( 'NONE', *, *, #182, .F. ) ;
#137 = VERTEX_POINT ( 'NONE', #236 ) ;
#138 = MANIFOLD_SOLID_BREP ( 'NONE', #128 ) ;
#139 = EDGE_CURVE ( 'NONE', #135, #126, #239, .T. ) ;
#140 = EDGE_LOOP ( 'NONE', ( #131, #133, #125, #164 ) ) ;
#141 = ORIENTED_EDGE ( 'NONE', *, *, #150, .T. ) ;
#142 = ORIENTED_EDGE ( 'NONE', *, *, #185, .F. ) ;
#143 = ADVANCED_FACE ( 'NONE', ( #235 ), #241, .T. ) ;
#144 = EDGE_CURVE ( 'NONE', #120, #168, #226, .T. ) ;
#145 = ORIENTED_EDGE ( 'NONE', *, *, #146, .T. ) ;
#146 = EDGE_CURVE ( 'NONE', #126, #166, #222, .T. ) ;
#147 = ORIENTED_EDGE ( 'NONE', *, *, #144, .F. ) ;
#148 = ORIENTED_EDGE ( 'NONE', *, *, #162, .T. ) ;
#149 = ORIENTED_EDGE ( 'NONE', *, *, #127, .T. ) ;
#150 = EDGE_CURVE ( 'NONE', #174, #166, #231, .T. ) ;
#151 = ORIENTED_EDGE ( 'NONE', *, *, #119, .T. ) ;
#152 = EDGE_LOOP ( 'NONE', ( #151, #118 ) ) ;
#153 = ADVANCED_FACE ( 'NONE', ( #248 ), #250, .T. ) ;
#154 = ORIENTED_EDGE ( 'NONE', *, *, #150, .F. ) ;
#155 = ADVANCED_FACE ( 'NONE', ( #252 ), #251, .T. ) ;
#156 = ORIENTED_EDGE ( 'NONE', *, *, #129, .T. ) ;
#157 = ADVANCED_FACE ( 'NONE', ( #256 ), #246, .T. ) ;
#158 = VERTEX_POINT ( 'NONE', #261 ) ;
#159 = ADVANCED_FACE ( 'NONE', ( #262 ), #267, .T. ) ;
#160 = EDGE_LOOP ( 'NONE', ( #163, #181, #183, #184 ) ) ;
#161 = ORIENTED_EDGE ( 'NONE', *, *, #170, .T. ) ;
#162 = EDGE_CURVE ( 'NONE', #166, #168, #272, .T. ) ;
#163 = ORIENTED_EDGE ( 'NONE', *, *, #146, .F. ) ;
#164 = ORIENTED_EDGE ( 'NONE', *, *, #165, .F. ) ;
#165 = EDGE_CURVE ( 'NONE', #137, #120, #273, .T. ) ;
#166 = VERTEX_POINT ( 'NONE', #278 ) ;
#167 = ORIENTED_EDGE ( 'NONE', *, *, #162, .F. ) ;
#168 = VERTEX_POINT ( 'NONE', #277 ) ;
#169 = EDGE_LOOP ( 'NONE', ( #171, #161, #167, #154 ) ) ;
#170 = EDGE_CURVE ( 'NONE', #158, #168, #276, .T. ) ;
#171 = ORIENTED_EDGE ( 'NONE', *, *, #172, .F. ) ;
#172 = EDGE_CURVE ( 'NONE', #158, #174, #122, .T. ) ;
#173 = EDGE_LOOP ( 'NONE', ( #149, #145, #148, #147 ) ) ;
#174 = VERTEX_POINT ( 'NONE', #10 ) ;
#175 = ORIENTED_EDGE ( 'NONE', *, *, #177, .T. ) ;
#176 = ADVANCED_FACE ( 'NONE', ( #12 ), #11, .F. ) ;
#177 = EDGE_CURVE ( 'NONE', #137, #135, #18, .T. ) ;
#178 = EDGE_LOOP ( 'NONE', ( #175, #156 ) ) ;
#179 = EDGE_LOOP ( 'NONE', ( #180, #130, #134, #136 ) ) ;
#180 = ORIENTED_EDGE ( 'NONE', *, *, #139, .F. ) ;
#181 = ORIENTED_EDGE ( 'NONE', *, *, #182, .T. ) ;
#182 = EDGE_CURVE ( 'NONE', #126, #120, #23, .T. ) ;
#183 = ORIENTED_EDGE ( 'NONE', *, *, #144, .T. ) ;
#184 = ORIENTED_EDGE ( 'NONE', *, *, #185, .T. ) ;
#185 = EDGE_CURVE ( 'NONE', #168, #166, #32, .T. ) ;
#186 = DIRECTION ( 'NONE',  ( -1.000000000000000000, -0.0000000000000000000, -0.0000000000000000000 ) ) ;
#187 = CARTESIAN_POINT ( 'NONE',  ( -10.00000000000000000, 0.0000000000000000000, 0.0000000000000000000 ) ) ;
#188 = AXIS2_PLACEMENT_3D ( 'NONE', #187, #186, #192 ) ;
#189 = VECTOR ( 'NONE', #194, 39.37007874015748100 ) ;
#190 = DIRECTION ( 'NONE',  ( 1.000000000000000000, 0.0000000000000000000, 0.0000000000000000000 ) ) ;
#191 = AXIS2_PLACEMENT_3D ( 'NONE', #205, #204, #200 ) ;
#192 = DIRECTION ( 'NONE',  ( 0.0000000000000000000, 0.0000000000000000000, -1.000000000000000000 ) ) ;
#193 = CARTESIAN_POINT ( 'NONE',  ( 10.00000000000000000, 0.0000000000000000000, 0.0000000000000000000 ) ) ;
#194 = DIRECTION ( 'NONE',  ( 0.7071067811865378000, 0.0000000000000000000, -0.7071067811865572300 ) ) ;
#195 = CIRCLE ( 'NONE', #199, 0.09999999999999731300 ) ;
#196 = CARTESIAN_POINT ( 'NONE',  ( -9.975000000000006800, 0.0000000000000000000, -0.1250000000000000600 ) ) ;
#197 = DIRECTION ( 'NONE',  ( 0.0000000000000000000, 0.0000000000000000000, -1.000000000000000000 ) ) ;
#198 = DIRECTION ( 'NONE',  ( -0.7071067811865996400, 0.0000000000000000000, 0.7071067811864952800 ) ) ;
#199 = AXIS2_PLACEMENT_3D ( 'NONE', #193, #190, #197 ) ;
#200 = DIRECTION ( 'NONE',  ( 0.0000000000000000000, 0.0000000000000000000, 1.000000000000000000 ) ) ;
#201 = DIRECTION ( 'NONE',  ( -0.7071067811865996400, 8.659274570718714500E-017, -0.7071067811864952800 ) ) ;
#202 = FACE_OUTER_BOUND ( 'NONE', #116, .T. ) ;
#203 = CONICAL_SURFACE ( 'NONE', #191, 0.09999999999999731300, 0.7853981633973745600 ) ;
#204 = DIRECTION ( 'NONE',  ( -1.000000000000000000, 0.0000000000000000000, 0.0000000000000000000 ) ) ;
#205 = CARTESIAN_POINT ( 'NONE',  ( 10.00000000000000000, 0.0000000000000000000, 0.0000000000000000000 ) ) ;
#206 = CARTESIAN_POINT ( 'NONE',  ( -9.975000000000006800, 1.530757942277972200E-017, 0.1250000000000000600 ) ) ;
#207 = CARTESIAN_POINT ( 'NONE',  ( -9.975000000000006800, 0.0000000000000000000, -0.1250000000000000600 ) ) ;
#208 = DIRECTION ( 'NONE',  ( 1.000000000000000000, -0.0000000000000000000, -0.0000000000000000000 ) ) ;
#209 = CIRCLE ( 'NONE', #188, 0.1000000000000060600 ) ;
#210 = AXIS2_PLACEMENT_3D ( 'NONE', #213, #208, #211 ) ;
#211 = DIRECTION ( 'NONE',  ( 0.0000000000000000000, 0.0000000000000000000, -1.000000000000000000 ) ) ;
#212 = CIRCLE ( 'NONE', #210, 0.1250000000000000600 ) ;
#213 = CARTESIAN_POINT ( 'NONE',  ( -9.975000000000006800, 0.0000000000000000000, 0.0000000000000000000 ) ) ;
#214 = FACE_OUTER_BOUND ( 'NONE', #140, .T. ) ;
#215 = CARTESIAN_POINT ( 'NONE',  ( -9.975000000000006800, 0.0000000000000000000, 0.0000000000000000000 ) ) ;
#216 = AXIS2_PLACEMENT_3D ( 'NONE', #215, #233, #232 ) ;
#217 = AXIS2_PLACEMENT_3D ( 'NONE', #234, #218, #228 ) ;
#218 = DIRECTION ( 'NONE',  ( 1.000000000000000000, -0.0000000000000000000, -0.0000000000000000000 ) ) ;
#219 = DIRECTION ( 'NONE',  ( 1.000000000000000000, 0.0000000000000000000, 0.0000000000000000000 ) ) ;
#220 = VECTOR ( 'NONE', #219, 39.37007874015748100 ) ;
#221 = CARTESIAN_POINT ( 'NONE',  ( -10.00000000000000000, 1.530757942277972200E-017, 0.1250000000000000600 ) ) ;
#222 = LINE ( 'NONE', #221, #220 ) ;
#223 = DIRECTION ( 'NONE',  ( 1.000000000000000000, 0.0000000000000000000, 0.0000000000000000000 ) ) ;
#224 = VECTOR ( 'NONE', #223, 39.37007874015748100 ) ;
#225 = CARTESIAN_POINT ( 'NONE',  ( -10.00000000000000000, 0.0000000000000000000, -0.1250000000000000600 ) ) ;
#226 = LINE ( 'NONE', #225, #224 ) ;
#227 = CARTESIAN_POINT ( 'NONE',  ( -10.00000000000000000, 1.377682148050211500E-017, 0.1000000000000060600 ) ) ;
#228 = DIRECTION ( 'NONE',  ( 0.0000000000000000000, 0.0000000000000000000, -1.000000000000000000 ) ) ;
#229 = VECTOR ( 'NONE', #198, 39.37007874015748900 ) ;
#230 = CARTESIAN_POINT ( 'NONE',  ( 10.00000000000000000, 0.0000000000000000000, 0.09999999999999731300 ) ) ;
#231 = LINE ( 'NONE', #230, #229 ) ;
#232 = DIRECTION ( 'NONE',  ( 0.0000000000000000000, 0.0000000000000000000, -1.000000000000000000 ) ) ;
#233 = DIRECTION ( 'NONE',  ( 1.000000000000000000, -0.0000000000000000000, -0.0000000000000000000 ) ) ;
#234 = CARTESIAN_POINT ( 'NONE',  ( -9.975000000000006800, 0.0000000000000000000, 0.0000000000000000000 ) ) ;
#235 = FACE_OUTER_BOUND ( 'NONE', #179, .T. ) ;
#236 = CARTESIAN_POINT ( 'NONE',  ( -10.00000000000000000, 0.0000000000000000000, -0.1000000000000060600 ) ) ;
#237 = DIRECTION ( 'NONE',  ( 0.7071067811865378000, 8.659274570719472500E-017, 0.7071067811865572300 ) ) ;
#238 = CARTESIAN_POINT ( 'NONE',  ( -9.975000000000006800, 1.530757942277971900E-017, 0.1250000000000000600 ) ) ;
#239 = LINE ( 'NONE', #238, #242 ) ;
#240 = CONICAL_SURFACE ( 'NONE', #217, 0.1250000000000000600, 0.7853981633974619300 ) ;
#241 = CONICAL_SURFACE ( 'NONE', #216, 0.1250000000000000600, 0.7853981633974619300 ) ;
#242 = VECTOR ( 'NONE', #237, 39.37007874015748100 ) ;
#243 = DIRECTION ( 'NONE',  ( -1.000000000000000000, 0.0000000000000000000, 0.0000000000000000000 ) ) ;
#244 = AXIS2_PLACEMENT_3D ( 'NONE', #245, #243, #249 ) ;
#245 = CARTESIAN_POINT ( 'NONE',  ( 10.00000000000000000, 0.0000000000000000000, 0.0000000000000000000 ) ) ;
#246 = CONICAL_SURFACE ( 'NONE', #244, 0.09999999999999731300, 0.7853981633973745600 ) ;
#247 = DIRECTION ( 'NONE',  ( 0.0000000000000000000, 0.0000000000000000000, -1.000000000000000000 ) ) ;
#248 = FACE_OUTER_BOUND ( 'NONE', #173, .T. ) ;
#249 = DIRECTION ( 'NONE',  ( 0.0000000000000000000, 0.0000000000000000000, 1.000000000000000000 ) ) ;
#250 = CYLINDRICAL_SURFACE ( 'NONE', #260, 0.1250000000000000600 ) ;
#251 = PLANE ( 'NONE',  #255 ) ;
#252 = FACE_OUTER_BOUND ( 'NONE', #152, .T. ) ;
#253 = DIRECTION ( 'NONE',  ( 1.000000000000000000, 0.0000000000000000000, 0.0000000000000000000 ) ) ;
#254 = CARTESIAN_POINT ( 'NONE',  ( 10.00000000000000000, 0.0000000000000000000, 0.0000000000000000000 ) ) ;
#255 = AXIS2_PLACEMENT_3D ( 'NONE', #254, #253, #247 ) ;
#256 = FACE_OUTER_BOUND ( 'NONE', #169, .T. ) ;
#257 = CARTESIAN_POINT ( 'NONE',  ( -10.00000000000000000, 0.0000000000000000000, 0.0000000000000000000 ) ) ;
#258 = DIRECTION ( 'NONE',  ( 0.0000000000000000000, 0.0000000000000000000, -1.000000000000000000 ) ) ;
#259 = DIRECTION ( 'NONE',  ( 1.000000000000000000, 0.0000000000000000000, 0.0000000000000000000 ) ) ;
#260 = AXIS2_PLACEMENT_3D ( 'NONE', #257, #259, #258 ) ;
#261 = CARTESIAN_POINT ( 'NONE',  ( 10.00000000000000000, 1.377682148050158300E-017, -0.09999999999999731300 ) ) ;
#262 = FACE_OUTER_BOUND ( 'NONE', #160, .T. ) ;
#263 = DIRECTION ( 'NONE',  ( 0.0000000000000000000, 0.0000000000000000000, -1.000000000000000000 ) ) ;
#264 = AXIS2_PLACEMENT_3D ( 'NONE', #266, #265, #263 ) ;
#265 = DIRECTION ( 'NONE',  ( 1.000000000000000000, 0.0000000000000000000, 0.0000000000000000000 ) ) ;
#266 = CARTESIAN_POINT ( 'NONE',  ( -10.00000000000000000, 0.0000000000000000000, 0.0000000000000000000 ) ) ;
#267 = CYLINDRICAL_SURFACE ( 'NONE', #264, 0.1250000000000000600 ) ;
#268 = DIRECTION ( 'NONE',  ( 0.0000000000000000000, 0.0000000000000000000, -1.000000000000000000 ) ) ;
#269 = DIRECTION ( 'NONE',  ( -1.000000000000000000, 0.0000000000000000000, 0.0000000000000000000 ) ) ;
#270 = CARTESIAN_POINT ( 'NONE',  ( 9.974999999999994300, 0.0000000000000000000, 0.0000000000000000000 ) ) ;
#271 = AXIS2_PLACEMENT_3D ( 'NONE', #270, #269, #268 ) ;
#272 = CIRCLE ( 'NONE', #271, 0.1250000000000000600 ) ;
#273 = LINE ( 'NONE', #196, #189 ) ;
#274 = VECTOR ( 'NONE', #201, 39.37007874015748900 ) ;
#275 = CARTESIAN_POINT ( 'NONE',  ( 10.00000000000000000, 1.224606353822344500E-017, -0.09999999999999731300 ) ) ;
#276 = LINE ( 'NONE', #275, #274 ) ;
#277 = CARTESIAN_POINT ( 'NONE',  ( 9.974999999999994300, 0.0000000000000000000, -0.1250000000000000600 ) ) ;
#278 = CARTESIAN_POINT ( 'NONE',  ( 9.974999999999994300, 1.530757942277972200E-017, 0.1250000000000000600 ) ) ;
ENDSEC;
END-ISO-10303-21;
