ISO-10303-21;
HEADER;
/* Generated by software containing ST-Developer
 * from STEP Tools, Inc. (www.steptools.com) 
 */

FILE_DESCRIPTION(
/* description */ (''),
/* implementation_level */ '2;1');

FILE_NAME(
/* name */ '\\\\fileserver\\UserHomes\\rory\\Downloads\\V6 3mm Break.s
tp',
/* time_stamp */ '2017-12-18T10:46:53+00:00',
/* author */ ('Rory'),
/* organization */ (''),
/* preprocessor_version */ 'ST-DEVELOPER v15.6',
/* originating_system */ 'Autodesk Inventor 2015',
/* authorisation */ '');

FILE_SCHEMA (('AUTOMOTIVE_DESIGN { 1 0 10303 214 3 1 1 }'));
ENDSEC;

DATA;
#10=MECHANICAL_DESIGN_GEOMETRIC_PRESENTATION_REPRESENTATION('',(#13),#303);
#11=SHAPE_REPRESENTATION_RELATIONSHIP('SRR','None',#312,#12);
#12=ADVANCED_BREP_SHAPE_REPRESENTATION($,(#14),#302);
#13=STYLED_ITEM('',(#321),#14);
#14=MANIFOLD_SOLID_BREP('Solid2',#169);
#15=CONICAL_SURFACE('',#182,2.28357205176496,59.0000000000002);
#16=CONICAL_SURFACE('',#186,1.80000000000001,58.9999999999998);
#17=CONICAL_SURFACE('',#190,1.7,45.);
#18=CONICAL_SURFACE('',#194,2.83357205176495,59.);
#19=PLANE('',#174);
#20=PLANE('',#178);
#21=PLANE('',#184);
#22=PLANE('',#192);
#23=PLANE('',#198);
#24=FACE_BOUND('',#53,.T.);
#25=FACE_BOUND('',#55,.T.);
#26=FACE_BOUND('',#57,.T.);
#27=FACE_BOUND('',#59,.T.);
#28=FACE_BOUND('',#61,.T.);
#29=FACE_BOUND('',#63,.T.);
#30=FACE_BOUND('',#65,.T.);
#31=FACE_BOUND('',#67,.T.);
#32=FACE_BOUND('',#69,.T.);
#33=FACE_BOUND('',#71,.T.);
#34=FACE_BOUND('',#73,.T.);
#35=FACE_BOUND('',#75,.T.);
#36=FACE_BOUND('',#77,.T.);
#37=FACE_BOUND('',#79,.T.);
#38=FACE_OUTER_BOUND('',#52,.T.);
#39=FACE_OUTER_BOUND('',#54,.T.);
#40=FACE_OUTER_BOUND('',#56,.T.);
#41=FACE_OUTER_BOUND('',#58,.T.);
#42=FACE_OUTER_BOUND('',#60,.T.);
#43=FACE_OUTER_BOUND('',#62,.T.);
#44=FACE_OUTER_BOUND('',#64,.T.);
#45=FACE_OUTER_BOUND('',#66,.T.);
#46=FACE_OUTER_BOUND('',#68,.T.);
#47=FACE_OUTER_BOUND('',#70,.T.);
#48=FACE_OUTER_BOUND('',#72,.T.);
#49=FACE_OUTER_BOUND('',#74,.T.);
#50=FACE_OUTER_BOUND('',#76,.T.);
#51=FACE_OUTER_BOUND('',#78,.T.);
#52=EDGE_LOOP('',(#122));
#53=EDGE_LOOP('',(#123));
#54=EDGE_LOOP('',(#124));
#55=EDGE_LOOP('',(#125));
#56=EDGE_LOOP('',(#126));
#57=EDGE_LOOP('',(#127));
#58=EDGE_LOOP('',(#128));
#59=EDGE_LOOP('',(#129));
#60=EDGE_LOOP('',(#130));
#61=EDGE_LOOP('',(#131));
#62=EDGE_LOOP('',(#132));
#63=EDGE_LOOP('',(#133));
#64=EDGE_LOOP('',(#134));
#65=EDGE_LOOP('',(#135));
#66=EDGE_LOOP('',(#136));
#67=EDGE_LOOP('',(#137));
#68=EDGE_LOOP('',(#138));
#69=EDGE_LOOP('',(#139));
#70=EDGE_LOOP('',(#140));
#71=EDGE_LOOP('',(#141));
#72=EDGE_LOOP('',(#142));
#73=EDGE_LOOP('',(#143));
#74=EDGE_LOOP('',(#144));
#75=EDGE_LOOP('',(#145));
#76=EDGE_LOOP('',(#146));
#77=EDGE_LOOP('',(#147));
#78=EDGE_LOOP('',(#148));
#79=EDGE_LOOP('',(#149));
#80=CIRCLE('',#172,2.05);
#81=CIRCLE('',#173,2.05);
#82=CIRCLE('',#175,3.);
#83=CIRCLE('',#177,3.00000000000001);
#84=CIRCLE('',#179,2.45000000000001);
#85=CIRCLE('',#181,2.45000000000001);
#86=CIRCLE('',#183,2.11714410352991);
#87=CIRCLE('',#185,2.00000000000001);
#88=CIRCLE('',#187,1.60000000000001);
#89=CIRCLE('',#189,1.6);
#90=CIRCLE('',#191,1.8);
#91=CIRCLE('',#193,2.6671441035299);
#92=CIRCLE('',#195,3.);
#93=CIRCLE('',#197,3.);
#94=VERTEX_POINT('',#259);
#95=VERTEX_POINT('',#261);
#96=VERTEX_POINT('',#264);
#97=VERTEX_POINT('',#267);
#98=VERTEX_POINT('',#270);
#99=VERTEX_POINT('',#273);
#100=VERTEX_POINT('',#276);
#101=VERTEX_POINT('',#279);
#102=VERTEX_POINT('',#282);
#103=VERTEX_POINT('',#285);
#104=VERTEX_POINT('',#288);
#105=VERTEX_POINT('',#291);
#106=VERTEX_POINT('',#294);
#107=VERTEX_POINT('',#297);
#108=EDGE_CURVE('',#94,#94,#80,.T.);
#109=EDGE_CURVE('',#95,#95,#81,.T.);
#110=EDGE_CURVE('',#96,#96,#82,.T.);
#111=EDGE_CURVE('',#97,#97,#83,.T.);
#112=EDGE_CURVE('',#98,#98,#84,.T.);
#113=EDGE_CURVE('',#99,#99,#85,.T.);
#114=EDGE_CURVE('',#100,#100,#86,.T.);
#115=EDGE_CURVE('',#101,#101,#87,.T.);
#116=EDGE_CURVE('',#102,#102,#88,.T.);
#117=EDGE_CURVE('',#103,#103,#89,.T.);
#118=EDGE_CURVE('',#104,#104,#90,.T.);
#119=EDGE_CURVE('',#105,#105,#91,.T.);
#120=EDGE_CURVE('',#106,#106,#92,.T.);
#121=EDGE_CURVE('',#107,#107,#93,.T.);
#122=ORIENTED_EDGE('',*,*,#108,.F.);
#123=ORIENTED_EDGE('',*,*,#109,.T.);
#124=ORIENTED_EDGE('',*,*,#110,.F.);
#125=ORIENTED_EDGE('',*,*,#108,.T.);
#126=ORIENTED_EDGE('',*,*,#111,.F.);
#127=ORIENTED_EDGE('',*,*,#110,.T.);
#128=ORIENTED_EDGE('',*,*,#111,.T.);
#129=ORIENTED_EDGE('',*,*,#112,.F.);
#130=ORIENTED_EDGE('',*,*,#113,.F.);
#131=ORIENTED_EDGE('',*,*,#112,.T.);
#132=ORIENTED_EDGE('',*,*,#114,.F.);
#133=ORIENTED_EDGE('',*,*,#113,.T.);
#134=ORIENTED_EDGE('',*,*,#114,.T.);
#135=ORIENTED_EDGE('',*,*,#115,.F.);
#136=ORIENTED_EDGE('',*,*,#116,.F.);
#137=ORIENTED_EDGE('',*,*,#115,.T.);
#138=ORIENTED_EDGE('',*,*,#116,.T.);
#139=ORIENTED_EDGE('',*,*,#117,.F.);
#140=ORIENTED_EDGE('',*,*,#118,.F.);
#141=ORIENTED_EDGE('',*,*,#117,.T.);
#142=ORIENTED_EDGE('',*,*,#119,.F.);
#143=ORIENTED_EDGE('',*,*,#118,.T.);
#144=ORIENTED_EDGE('',*,*,#120,.F.);
#145=ORIENTED_EDGE('',*,*,#119,.T.);
#146=ORIENTED_EDGE('',*,*,#121,.F.);
#147=ORIENTED_EDGE('',*,*,#120,.T.);
#148=ORIENTED_EDGE('',*,*,#121,.T.);
#149=ORIENTED_EDGE('',*,*,#109,.F.);
#150=CYLINDRICAL_SURFACE('',#171,2.05);
#151=CYLINDRICAL_SURFACE('',#176,3.00000000000001);
#152=CYLINDRICAL_SURFACE('',#180,2.45000000000001);
#153=CYLINDRICAL_SURFACE('',#188,1.6);
#154=CYLINDRICAL_SURFACE('',#196,3.);
#155=ADVANCED_FACE('',(#38,#24),#150,.T.);
#156=ADVANCED_FACE('',(#39,#25),#19,.T.);
#157=ADVANCED_FACE('',(#40,#26),#151,.T.);
#158=ADVANCED_FACE('',(#41,#27),#20,.T.);
#159=ADVANCED_FACE('',(#42,#28),#152,.T.);
#160=ADVANCED_FACE('',(#43,#29),#15,.T.);
#161=ADVANCED_FACE('',(#44,#30),#21,.T.);
#162=ADVANCED_FACE('',(#45,#31),#16,.F.);
#163=ADVANCED_FACE('',(#46,#32),#153,.F.);
#164=ADVANCED_FACE('',(#47,#33),#17,.F.);
#165=ADVANCED_FACE('',(#48,#34),#22,.T.);
#166=ADVANCED_FACE('',(#49,#35),#18,.T.);
#167=ADVANCED_FACE('',(#50,#36),#154,.T.);
#168=ADVANCED_FACE('',(#51,#37),#23,.T.);
#169=CLOSED_SHELL('',(#155,#156,#157,#158,#159,#160,#161,#162,#163,#164,
#165,#166,#167,#168));
#170=AXIS2_PLACEMENT_3D('placement',#257,#199,#200);
#171=AXIS2_PLACEMENT_3D('',#258,#201,#202);
#172=AXIS2_PLACEMENT_3D('',#260,#203,#204);
#173=AXIS2_PLACEMENT_3D('',#262,#205,#206);
#174=AXIS2_PLACEMENT_3D('',#263,#207,#208);
#175=AXIS2_PLACEMENT_3D('',#265,#209,#210);
#176=AXIS2_PLACEMENT_3D('',#266,#211,#212);
#177=AXIS2_PLACEMENT_3D('',#268,#213,#214);
#178=AXIS2_PLACEMENT_3D('',#269,#215,#216);
#179=AXIS2_PLACEMENT_3D('',#271,#217,#218);
#180=AXIS2_PLACEMENT_3D('',#272,#219,#220);
#181=AXIS2_PLACEMENT_3D('',#274,#221,#222);
#182=AXIS2_PLACEMENT_3D('',#275,#223,#224);
#183=AXIS2_PLACEMENT_3D('',#277,#225,#226);
#184=AXIS2_PLACEMENT_3D('',#278,#227,#228);
#185=AXIS2_PLACEMENT_3D('',#280,#229,#230);
#186=AXIS2_PLACEMENT_3D('',#281,#231,#232);
#187=AXIS2_PLACEMENT_3D('',#283,#233,#234);
#188=AXIS2_PLACEMENT_3D('',#284,#235,#236);
#189=AXIS2_PLACEMENT_3D('',#286,#237,#238);
#190=AXIS2_PLACEMENT_3D('',#287,#239,#240);
#191=AXIS2_PLACEMENT_3D('',#289,#241,#242);
#192=AXIS2_PLACEMENT_3D('',#290,#243,#244);
#193=AXIS2_PLACEMENT_3D('',#292,#245,#246);
#194=AXIS2_PLACEMENT_3D('',#293,#247,#248);
#195=AXIS2_PLACEMENT_3D('',#295,#249,#250);
#196=AXIS2_PLACEMENT_3D('',#296,#251,#252);
#197=AXIS2_PLACEMENT_3D('',#298,#253,#254);
#198=AXIS2_PLACEMENT_3D('',#299,#255,#256);
#199=DIRECTION('axis',(0.,0.,1.));
#200=DIRECTION('refdir',(1.,0.,0.));
#201=DIRECTION('center_axis',(0.,0.,1.));
#202=DIRECTION('ref_axis',(1.,0.,0.));
#203=DIRECTION('center_axis',(0.,0.,1.));
#204=DIRECTION('ref_axis',(1.,0.,0.));
#205=DIRECTION('center_axis',(0.,0.,1.));
#206=DIRECTION('ref_axis',(1.,0.,0.));
#207=DIRECTION('center_axis',(0.,0.,-1.));
#208=DIRECTION('ref_axis',(-1.,0.,0.));
#209=DIRECTION('center_axis',(0.,0.,1.));
#210=DIRECTION('ref_axis',(1.,0.,0.));
#211=DIRECTION('center_axis',(0.,0.,1.));
#212=DIRECTION('ref_axis',(1.,0.,0.));
#213=DIRECTION('center_axis',(0.,0.,1.));
#214=DIRECTION('ref_axis',(1.,0.,0.));
#215=DIRECTION('center_axis',(0.,0.,1.));
#216=DIRECTION('ref_axis',(1.,0.,0.));
#217=DIRECTION('center_axis',(0.,0.,1.));
#218=DIRECTION('ref_axis',(1.,0.,0.));
#219=DIRECTION('center_axis',(0.,0.,1.));
#220=DIRECTION('ref_axis',(1.,0.,0.));
#221=DIRECTION('center_axis',(0.,0.,1.));
#222=DIRECTION('ref_axis',(1.,0.,0.));
#223=DIRECTION('center_axis',(0.,0.,-1.));
#224=DIRECTION('ref_axis',(1.,0.,0.));
#225=DIRECTION('center_axis',(0.,0.,1.));
#226=DIRECTION('ref_axis',(1.,0.,0.));
#227=DIRECTION('center_axis',(0.,0.,1.));
#228=DIRECTION('ref_axis',(1.,0.,0.));
#229=DIRECTION('center_axis',(0.,0.,1.));
#230=DIRECTION('ref_axis',(1.,0.,0.));
#231=DIRECTION('center_axis',(0.,0.,1.));
#232=DIRECTION('ref_axis',(1.,0.,0.));
#233=DIRECTION('center_axis',(0.,0.,1.));
#234=DIRECTION('ref_axis',(1.,0.,0.));
#235=DIRECTION('center_axis',(0.,0.,1.));
#236=DIRECTION('ref_axis',(1.,0.,0.));
#237=DIRECTION('center_axis',(0.,0.,1.));
#238=DIRECTION('ref_axis',(1.,0.,0.));
#239=DIRECTION('center_axis',(0.,0.,-1.));
#240=DIRECTION('ref_axis',(1.,0.,0.));
#241=DIRECTION('center_axis',(0.,0.,1.));
#242=DIRECTION('ref_axis',(1.,0.,0.));
#243=DIRECTION('center_axis',(0.,0.,-1.));
#244=DIRECTION('ref_axis',(-1.,0.,0.));
#245=DIRECTION('center_axis',(0.,0.,1.));
#246=DIRECTION('ref_axis',(1.,0.,0.));
#247=DIRECTION('center_axis',(0.,0.,1.));
#248=DIRECTION('ref_axis',(1.,0.,0.));
#249=DIRECTION('center_axis',(0.,0.,1.));
#250=DIRECTION('ref_axis',(1.,0.,0.));
#251=DIRECTION('center_axis',(0.,0.,1.));
#252=DIRECTION('ref_axis',(1.,0.,0.));
#253=DIRECTION('center_axis',(0.,0.,1.));
#254=DIRECTION('ref_axis',(1.,0.,0.));
#255=DIRECTION('center_axis',(0.,0.,1.));
#256=DIRECTION('ref_axis',(1.,0.,0.));
#257=CARTESIAN_POINT('',(0.,0.,0.));
#258=CARTESIAN_POINT('Origin',(0.,0.,6.05));
#259=CARTESIAN_POINT('',(2.05,0.,7.1));
#260=CARTESIAN_POINT('Origin',(0.,0.,7.1));
#261=CARTESIAN_POINT('',(2.05,0.,5.));
#262=CARTESIAN_POINT('Origin',(0.,0.,5.));
#263=CARTESIAN_POINT('Origin',(3.,0.,7.1));
#264=CARTESIAN_POINT('',(3.,0.,7.1));
#265=CARTESIAN_POINT('Origin',(0.,0.,7.1));
#266=CARTESIAN_POINT('Origin',(0.,0.,13.85));
#267=CARTESIAN_POINT('',(3.00000000000001,0.,20.6));
#268=CARTESIAN_POINT('Origin',(0.,0.,20.6));
#269=CARTESIAN_POINT('Origin',(2.45000000000001,0.,20.6));
#270=CARTESIAN_POINT('',(2.45000000000001,0.,20.6));
#271=CARTESIAN_POINT('Origin',(0.,0.,20.6));
#272=CARTESIAN_POINT('Origin',(0.,0.,22.85));
#273=CARTESIAN_POINT('',(2.45000000000001,0.,25.1));
#274=CARTESIAN_POINT('Origin',(0.,0.,25.1));
#275=CARTESIAN_POINT('Origin',(0.,0.,25.2));
#276=CARTESIAN_POINT('',(2.11714410352991,0.,25.3));
#277=CARTESIAN_POINT('Origin',(0.,0.,25.3));
#278=CARTESIAN_POINT('Origin',(2.00000000000001,0.,25.3));
#279=CARTESIAN_POINT('',(2.00000000000001,0.,25.3));
#280=CARTESIAN_POINT('Origin',(0.,0.,25.3));
#281=CARTESIAN_POINT('Origin',(0.,0.,25.1798278761945));
#282=CARTESIAN_POINT('',(1.60000000000001,0.,25.059655752389));
#283=CARTESIAN_POINT('Origin',(0.,0.,25.059655752389));
#284=CARTESIAN_POINT('Origin',(0.,0.,3.6));
#285=CARTESIAN_POINT('',(1.6,0.,0.2));
#286=CARTESIAN_POINT('Origin',(0.,0.,0.2));
#287=CARTESIAN_POINT('Origin',(0.,0.,0.1));
#288=CARTESIAN_POINT('',(1.8,0.,-1.79673333027581E-16));
#289=CARTESIAN_POINT('Origin',(0.,0.,0.));
#290=CARTESIAN_POINT('Origin',(2.6671441035299,0.,-3.06249403515791E-16));
#291=CARTESIAN_POINT('',(2.6671441035299,0.,-3.06249403515791E-16));
#292=CARTESIAN_POINT('Origin',(0.,0.,0.));
#293=CARTESIAN_POINT('Origin',(0.,0.,0.0999999999999995));
#294=CARTESIAN_POINT('',(3.,0.,0.2));
#295=CARTESIAN_POINT('Origin',(0.,0.,0.2));
#296=CARTESIAN_POINT('Origin',(0.,0.,2.6));
#297=CARTESIAN_POINT('',(3.,0.,5.));
#298=CARTESIAN_POINT('Origin',(0.,0.,5.));
#299=CARTESIAN_POINT('Origin',(2.05,0.,5.));
#300=UNCERTAINTY_MEASURE_WITH_UNIT(LENGTH_MEASURE(0.01),#304,
'DISTANCE_ACCURACY_VALUE',
'Maximum model space distance between geometric entities at asserted c
onnectivities');
#301=UNCERTAINTY_MEASURE_WITH_UNIT(LENGTH_MEASURE(1.E-6),#304,
'DISTANCE_ACCURACY_VALUE',
'Maximum model space distance between geometric entities at asserted c
onnectivities');
#302=(
GEOMETRIC_REPRESENTATION_CONTEXT(3)
GLOBAL_UNCERTAINTY_ASSIGNED_CONTEXT((#300))
GLOBAL_UNIT_ASSIGNED_CONTEXT((#304,#307,#305))
REPRESENTATION_CONTEXT('','3D')
);
#303=(
GEOMETRIC_REPRESENTATION_CONTEXT(3)
GLOBAL_UNCERTAINTY_ASSIGNED_CONTEXT((#301))
GLOBAL_UNIT_ASSIGNED_CONTEXT((#304,#307,#305))
REPRESENTATION_CONTEXT('','3D')
);
#304=(
LENGTH_UNIT()
NAMED_UNIT(*)
SI_UNIT(.MILLI.,.METRE.)
);
#305=(
NAMED_UNIT(*)
SI_UNIT($,.STERADIAN.)
SOLID_ANGLE_UNIT()
);
#306=DIMENSIONAL_EXPONENTS(0.,0.,0.,0.,0.,0.,0.);
#307=(
CONVERSION_BASED_UNIT('degree',#309)
NAMED_UNIT(#306)
PLANE_ANGLE_UNIT()
);
#308=(
NAMED_UNIT(*)
PLANE_ANGLE_UNIT()
SI_UNIT($,.RADIAN.)
);
#309=PLANE_ANGLE_MEASURE_WITH_UNIT(PLANE_ANGLE_MEASURE(0.01745329252),#308);
#310=SHAPE_DEFINITION_REPRESENTATION(#311,#312);
#311=PRODUCT_DEFINITION_SHAPE('',$,#314);
#312=SHAPE_REPRESENTATION('',(#170),#302);
#313=PRODUCT_DEFINITION_CONTEXT('part definition',#318,'design');
#314=PRODUCT_DEFINITION('V6.5 Heatbreak 3mm','V6.5 Heatbreak 3mm',#315,
#313);
#315=PRODUCT_DEFINITION_FORMATION('',$,#320);
#316=PRODUCT_RELATED_PRODUCT_CATEGORY('V6.5 Heatbreak 3mm',
'V6.5 Heatbreak 3mm',(#320));
#317=APPLICATION_PROTOCOL_DEFINITION('international standard',
'automotive_design',2009,#318);
#318=APPLICATION_CONTEXT(
'Core Data for Automotive Mechanical Design Process');
#319=PRODUCT_CONTEXT('part definition',#318,'mechanical');
#320=PRODUCT('V6.5 Heatbreak 3mm','V6.5 Heatbreak 3mm',$,(#319));
#321=PRESENTATION_STYLE_ASSIGNMENT((#322));
#322=SURFACE_STYLE_USAGE(.BOTH.,#323);
#323=SURFACE_SIDE_STYLE($,(#324));
#324=SURFACE_STYLE_FILL_AREA(#325);
#325=FILL_AREA_STYLE($,(#326));
#326=FILL_AREA_STYLE_COLOUR($,#327);
#327=COLOUR_RGB('',0.749019607843137,0.749019607843137,0.749019607843137);
ENDSEC;
END-ISO-10303-21;
