ISO-10303-21;
HEADER;
/* Generated by software containing ST-Developer
 * from STEP Tools, Inc. (www.steptools.com) 
 */

FILE_DESCRIPTION(
/* description */ (''),
/* implementation_level */ '2;1');

FILE_NAME(
/* name */ '\\\\fileserver\\UserHomes\\rory\\Downloads\\V6 Nozzle.stp',

/* time_stamp */ '2017-12-18T10:34:59+00:00',
/* author */ ('Rory'),
/* organization */ (''),
/* preprocessor_version */ 'ST-DEVELOPER v15.6',
/* originating_system */ 'Autodesk Inventor 2015',
/* authorisation */ '');

FILE_SCHEMA (('AUTOMOTIVE_DESIGN { 1 0 10303 214 3 1 1 }'));
ENDSEC;

DATA;
#10=MECHANICAL_DESIGN_GEOMETRIC_PRESENTATION_REPRESENTATION('',(#13),#451);
#11=SHAPE_REPRESENTATION_RELATIONSHIP('SRR','None',#460,#12);
#12=ADVANCED_BREP_SHAPE_REPRESENTATION($,(#14),#450);
#13=STYLED_ITEM('',(#469),#14);
#14=MANIFOLD_SOLID_BREP('Solid1',#268);
#15=CYLINDRICAL_SURFACE('',#279,3.);
#16=CYLINDRICAL_SURFACE('',#289,2.5);
#17=CYLINDRICAL_SURFACE('',#292,1.);
#18=CYLINDRICAL_SURFACE('',#296,0.2);
#19=FACE_BOUND('',#71,.T.);
#20=FACE_BOUND('',#73,.T.);
#21=FACE_BOUND('',#75,.T.);
#22=FACE_BOUND('',#77,.T.);
#23=FACE_BOUND('',#79,.T.);
#24=FACE_BOUND('',#81,.T.);
#25=FACE_BOUND('',#83,.T.);
#26=FACE_BOUND('',#85,.T.);
#27=FACE_BOUND('',#87,.T.);
#28=FACE_BOUND('',#89,.T.);
#29=FACE_BOUND('',#91,.T.);
#30=FACE_BOUND('',#93,.T.);
#31=CIRCLE('',#277,3.);
#32=CIRCLE('',#278,2.8);
#33=CIRCLE('',#280,3.);
#34=CIRCLE('',#282,1.);
#35=CIRCLE('',#284,1.90041507641942);
#36=CIRCLE('',#285,0.5);
#37=CIRCLE('',#288,2.5);
#38=CIRCLE('',#290,2.5);
#39=CIRCLE('',#293,1.);
#40=CIRCLE('',#295,0.2);
#41=CIRCLE('',#297,0.2);
#42=CONICAL_SURFACE('',#276,2.9,44.9999999999999);
#43=CONICAL_SURFACE('',#283,1.20020753820971,35.);
#44=CONICAL_SURFACE('',#291,2.75,69.9999999999999);
#45=CONICAL_SURFACE('',#294,0.6,59.);
#46=FACE_OUTER_BOUND('',#64,.T.);
#47=FACE_OUTER_BOUND('',#65,.T.);
#48=FACE_OUTER_BOUND('',#66,.T.);
#49=FACE_OUTER_BOUND('',#67,.T.);
#50=FACE_OUTER_BOUND('',#68,.T.);
#51=FACE_OUTER_BOUND('',#69,.T.);
#52=FACE_OUTER_BOUND('',#70,.T.);
#53=FACE_OUTER_BOUND('',#72,.T.);
#54=FACE_OUTER_BOUND('',#74,.T.);
#55=FACE_OUTER_BOUND('',#76,.T.);
#56=FACE_OUTER_BOUND('',#78,.T.);
#57=FACE_OUTER_BOUND('',#80,.T.);
#58=FACE_OUTER_BOUND('',#82,.T.);
#59=FACE_OUTER_BOUND('',#84,.T.);
#60=FACE_OUTER_BOUND('',#86,.T.);
#61=FACE_OUTER_BOUND('',#88,.T.);
#62=FACE_OUTER_BOUND('',#90,.T.);
#63=FACE_OUTER_BOUND('',#92,.T.);
#64=EDGE_LOOP('',(#182,#183,#184,#185));
#65=EDGE_LOOP('',(#186,#187,#188,#189));
#66=EDGE_LOOP('',(#190,#191,#192,#193));
#67=EDGE_LOOP('',(#194,#195,#196,#197));
#68=EDGE_LOOP('',(#198,#199,#200,#201));
#69=EDGE_LOOP('',(#202,#203,#204,#205));
#70=EDGE_LOOP('',(#206));
#71=EDGE_LOOP('',(#207));
#72=EDGE_LOOP('',(#208));
#73=EDGE_LOOP('',(#209));
#74=EDGE_LOOP('',(#210));
#75=EDGE_LOOP('',(#211));
#76=EDGE_LOOP('',(#212));
#77=EDGE_LOOP('',(#213));
#78=EDGE_LOOP('',(#214,#215,#216,#217,#218,#219));
#79=EDGE_LOOP('',(#220));
#80=EDGE_LOOP('',(#221,#222,#223,#224,#225,#226));
#81=EDGE_LOOP('',(#227));
#82=EDGE_LOOP('',(#228));
#83=EDGE_LOOP('',(#229));
#84=EDGE_LOOP('',(#230));
#85=EDGE_LOOP('',(#231));
#86=EDGE_LOOP('',(#232));
#87=EDGE_LOOP('',(#233));
#88=EDGE_LOOP('',(#234));
#89=EDGE_LOOP('',(#235));
#90=EDGE_LOOP('',(#236));
#91=EDGE_LOOP('',(#237));
#92=EDGE_LOOP('',(#238));
#93=EDGE_LOOP('',(#239));
#94=LINE('',#381,#112);
#95=LINE('',#383,#113);
#96=LINE('',#385,#114);
#97=LINE('',#386,#115);
#98=LINE('',#389,#116);
#99=LINE('',#391,#117);
#100=LINE('',#392,#118);
#101=LINE('',#395,#119);
#102=LINE('',#397,#120);
#103=LINE('',#398,#121);
#104=LINE('',#401,#122);
#105=LINE('',#403,#123);
#106=LINE('',#404,#124);
#107=LINE('',#407,#125);
#108=LINE('',#409,#126);
#109=LINE('',#410,#127);
#110=LINE('',#412,#128);
#111=LINE('',#413,#129);
#112=VECTOR('',#303,4.0415);
#113=VECTOR('',#304,3.);
#114=VECTOR('',#305,4.0415);
#115=VECTOR('',#306,3.);
#116=VECTOR('',#309,4.0415);
#117=VECTOR('',#310,4.0415);
#118=VECTOR('',#311,3.);
#119=VECTOR('',#314,4.0415);
#120=VECTOR('',#315,4.0415);
#121=VECTOR('',#316,3.);
#122=VECTOR('',#319,4.04149999999999);
#123=VECTOR('',#320,4.0415);
#124=VECTOR('',#321,3.);
#125=VECTOR('',#324,4.0415);
#126=VECTOR('',#325,3.);
#127=VECTOR('',#326,4.0415);
#128=VECTOR('',#329,4.0415);
#129=VECTOR('',#330,4.0415);
#130=VERTEX_POINT('',#379);
#131=VERTEX_POINT('',#380);
#132=VERTEX_POINT('',#382);
#133=VERTEX_POINT('',#384);
#134=VERTEX_POINT('',#388);
#135=VERTEX_POINT('',#390);
#136=VERTEX_POINT('',#394);
#137=VERTEX_POINT('',#396);
#138=VERTEX_POINT('',#400);
#139=VERTEX_POINT('',#402);
#140=VERTEX_POINT('',#406);
#141=VERTEX_POINT('',#408);
#142=VERTEX_POINT('',#415);
#143=VERTEX_POINT('',#417);
#144=VERTEX_POINT('',#420);
#145=VERTEX_POINT('',#423);
#146=VERTEX_POINT('',#426);
#147=VERTEX_POINT('',#428);
#148=VERTEX_POINT('',#432);
#149=VERTEX_POINT('',#435);
#150=VERTEX_POINT('',#439);
#151=VERTEX_POINT('',#442);
#152=VERTEX_POINT('',#445);
#153=EDGE_CURVE('',#130,#131,#94,.T.);
#154=EDGE_CURVE('',#132,#130,#95,.T.);
#155=EDGE_CURVE('',#133,#132,#96,.T.);
#156=EDGE_CURVE('',#133,#131,#97,.T.);
#157=EDGE_CURVE('',#131,#134,#98,.T.);
#158=EDGE_CURVE('',#135,#133,#99,.T.);
#159=EDGE_CURVE('',#135,#134,#100,.T.);
#160=EDGE_CURVE('',#134,#136,#101,.T.);
#161=EDGE_CURVE('',#137,#135,#102,.T.);
#162=EDGE_CURVE('',#137,#136,#103,.T.);
#163=EDGE_CURVE('',#136,#138,#104,.T.);
#164=EDGE_CURVE('',#139,#137,#105,.T.);
#165=EDGE_CURVE('',#138,#139,#106,.T.);
#166=EDGE_CURVE('',#140,#130,#107,.T.);
#167=EDGE_CURVE('',#141,#140,#108,.T.);
#168=EDGE_CURVE('',#132,#141,#109,.T.);
#169=EDGE_CURVE('',#138,#140,#110,.T.);
#170=EDGE_CURVE('',#141,#139,#111,.T.);
#171=EDGE_CURVE('',#142,#142,#31,.T.);
#172=EDGE_CURVE('',#143,#143,#32,.T.);
#173=EDGE_CURVE('',#144,#144,#33,.T.);
#174=EDGE_CURVE('',#145,#145,#34,.T.);
#175=EDGE_CURVE('',#146,#146,#35,.T.);
#176=EDGE_CURVE('',#147,#147,#36,.T.);
#177=EDGE_CURVE('',#148,#148,#37,.T.);
#178=EDGE_CURVE('',#149,#149,#38,.T.);
#179=EDGE_CURVE('',#150,#150,#39,.T.);
#180=EDGE_CURVE('',#151,#151,#40,.T.);
#181=EDGE_CURVE('',#152,#152,#41,.T.);
#182=ORIENTED_EDGE('',*,*,#153,.F.);
#183=ORIENTED_EDGE('',*,*,#154,.F.);
#184=ORIENTED_EDGE('',*,*,#155,.F.);
#185=ORIENTED_EDGE('',*,*,#156,.T.);
#186=ORIENTED_EDGE('',*,*,#157,.F.);
#187=ORIENTED_EDGE('',*,*,#156,.F.);
#188=ORIENTED_EDGE('',*,*,#158,.F.);
#189=ORIENTED_EDGE('',*,*,#159,.T.);
#190=ORIENTED_EDGE('',*,*,#160,.F.);
#191=ORIENTED_EDGE('',*,*,#159,.F.);
#192=ORIENTED_EDGE('',*,*,#161,.F.);
#193=ORIENTED_EDGE('',*,*,#162,.T.);
#194=ORIENTED_EDGE('',*,*,#163,.F.);
#195=ORIENTED_EDGE('',*,*,#162,.F.);
#196=ORIENTED_EDGE('',*,*,#164,.F.);
#197=ORIENTED_EDGE('',*,*,#165,.F.);
#198=ORIENTED_EDGE('',*,*,#166,.F.);
#199=ORIENTED_EDGE('',*,*,#167,.F.);
#200=ORIENTED_EDGE('',*,*,#168,.F.);
#201=ORIENTED_EDGE('',*,*,#154,.T.);
#202=ORIENTED_EDGE('',*,*,#169,.F.);
#203=ORIENTED_EDGE('',*,*,#165,.T.);
#204=ORIENTED_EDGE('',*,*,#170,.F.);
#205=ORIENTED_EDGE('',*,*,#167,.T.);
#206=ORIENTED_EDGE('',*,*,#171,.T.);
#207=ORIENTED_EDGE('',*,*,#172,.T.);
#208=ORIENTED_EDGE('',*,*,#173,.T.);
#209=ORIENTED_EDGE('',*,*,#171,.F.);
#210=ORIENTED_EDGE('',*,*,#172,.F.);
#211=ORIENTED_EDGE('',*,*,#174,.F.);
#212=ORIENTED_EDGE('',*,*,#175,.F.);
#213=ORIENTED_EDGE('',*,*,#176,.T.);
#214=ORIENTED_EDGE('',*,*,#164,.T.);
#215=ORIENTED_EDGE('',*,*,#161,.T.);
#216=ORIENTED_EDGE('',*,*,#158,.T.);
#217=ORIENTED_EDGE('',*,*,#155,.T.);
#218=ORIENTED_EDGE('',*,*,#168,.T.);
#219=ORIENTED_EDGE('',*,*,#170,.T.);
#220=ORIENTED_EDGE('',*,*,#175,.T.);
#221=ORIENTED_EDGE('',*,*,#169,.T.);
#222=ORIENTED_EDGE('',*,*,#166,.T.);
#223=ORIENTED_EDGE('',*,*,#153,.T.);
#224=ORIENTED_EDGE('',*,*,#157,.T.);
#225=ORIENTED_EDGE('',*,*,#160,.T.);
#226=ORIENTED_EDGE('',*,*,#163,.T.);
#227=ORIENTED_EDGE('',*,*,#177,.F.);
#228=ORIENTED_EDGE('',*,*,#178,.F.);
#229=ORIENTED_EDGE('',*,*,#177,.T.);
#230=ORIENTED_EDGE('',*,*,#173,.F.);
#231=ORIENTED_EDGE('',*,*,#178,.T.);
#232=ORIENTED_EDGE('',*,*,#179,.F.);
#233=ORIENTED_EDGE('',*,*,#174,.T.);
#234=ORIENTED_EDGE('',*,*,#180,.F.);
#235=ORIENTED_EDGE('',*,*,#179,.T.);
#236=ORIENTED_EDGE('',*,*,#181,.F.);
#237=ORIENTED_EDGE('',*,*,#180,.T.);
#238=ORIENTED_EDGE('',*,*,#176,.F.);
#239=ORIENTED_EDGE('',*,*,#181,.T.);
#240=PLANE('',#270);
#241=PLANE('',#271);
#242=PLANE('',#272);
#243=PLANE('',#273);
#244=PLANE('',#274);
#245=PLANE('',#275);
#246=PLANE('',#281);
#247=PLANE('',#286);
#248=PLANE('',#287);
#249=PLANE('',#298);
#250=ADVANCED_FACE('',(#46),#240,.T.);
#251=ADVANCED_FACE('',(#47),#241,.T.);
#252=ADVANCED_FACE('',(#48),#242,.T.);
#253=ADVANCED_FACE('',(#49),#243,.T.);
#254=ADVANCED_FACE('',(#50),#244,.T.);
#255=ADVANCED_FACE('',(#51),#245,.T.);
#256=ADVANCED_FACE('',(#52,#19),#42,.T.);
#257=ADVANCED_FACE('',(#53,#20),#15,.T.);
#258=ADVANCED_FACE('',(#54,#21),#246,.T.);
#259=ADVANCED_FACE('',(#55,#22),#43,.T.);
#260=ADVANCED_FACE('',(#56,#23),#247,.T.);
#261=ADVANCED_FACE('',(#57,#24),#248,.T.);
#262=ADVANCED_FACE('',(#58,#25),#16,.T.);
#263=ADVANCED_FACE('',(#59,#26),#44,.T.);
#264=ADVANCED_FACE('',(#60,#27),#17,.F.);
#265=ADVANCED_FACE('',(#61,#28),#45,.F.);
#266=ADVANCED_FACE('',(#62,#29),#18,.F.);
#267=ADVANCED_FACE('',(#63,#30),#249,.T.);
#268=CLOSED_SHELL('',(#250,#251,#252,#253,#254,#255,#256,#257,#258,#259,
#260,#261,#262,#263,#264,#265,#266,#267));
#269=AXIS2_PLACEMENT_3D('placement',#377,#299,#300);
#270=AXIS2_PLACEMENT_3D('',#378,#301,#302);
#271=AXIS2_PLACEMENT_3D('',#387,#307,#308);
#272=AXIS2_PLACEMENT_3D('',#393,#312,#313);
#273=AXIS2_PLACEMENT_3D('',#399,#317,#318);
#274=AXIS2_PLACEMENT_3D('',#405,#322,#323);
#275=AXIS2_PLACEMENT_3D('',#411,#327,#328);
#276=AXIS2_PLACEMENT_3D('',#414,#331,#332);
#277=AXIS2_PLACEMENT_3D('',#416,#333,#334);
#278=AXIS2_PLACEMENT_3D('',#418,#335,#336);
#279=AXIS2_PLACEMENT_3D('',#419,#337,#338);
#280=AXIS2_PLACEMENT_3D('',#421,#339,#340);
#281=AXIS2_PLACEMENT_3D('',#422,#341,#342);
#282=AXIS2_PLACEMENT_3D('',#424,#343,#344);
#283=AXIS2_PLACEMENT_3D('',#425,#345,#346);
#284=AXIS2_PLACEMENT_3D('',#427,#347,#348);
#285=AXIS2_PLACEMENT_3D('',#429,#349,#350);
#286=AXIS2_PLACEMENT_3D('',#430,#351,#352);
#287=AXIS2_PLACEMENT_3D('',#431,#353,#354);
#288=AXIS2_PLACEMENT_3D('',#433,#355,#356);
#289=AXIS2_PLACEMENT_3D('',#434,#357,#358);
#290=AXIS2_PLACEMENT_3D('',#436,#359,#360);
#291=AXIS2_PLACEMENT_3D('',#437,#361,#362);
#292=AXIS2_PLACEMENT_3D('',#438,#363,#364);
#293=AXIS2_PLACEMENT_3D('',#440,#365,#366);
#294=AXIS2_PLACEMENT_3D('',#441,#367,#368);
#295=AXIS2_PLACEMENT_3D('',#443,#369,#370);
#296=AXIS2_PLACEMENT_3D('',#444,#371,#372);
#297=AXIS2_PLACEMENT_3D('',#446,#373,#374);
#298=AXIS2_PLACEMENT_3D('',#447,#375,#376);
#299=DIRECTION('axis',(0.,0.,1.));
#300=DIRECTION('refdir',(1.,0.,0.));
#301=DIRECTION('center_axis',(-0.866025403784439,-0.499999999999999,2.6440736937774E-16));
#302=DIRECTION('ref_axis',(0.499999999999999,-0.866025403784439,-1.55431223447522E-16));
#303=DIRECTION('',(0.499999999999999,-0.866025403784439,-1.52113991909376E-16));
#304=DIRECTION('',(3.04227983818753E-16,0.,1.));
#305=DIRECTION('',(-0.499999999999999,0.866025403784439,1.52113991909376E-16));
#306=DIRECTION('',(3.04227983818753E-16,0.,1.));
#307=DIRECTION('center_axis',(-9.61469896372151E-16,-1.,2.93547654519989E-31));
#308=DIRECTION('ref_axis',(1.,-9.76996261670138E-16,-3.10862446895044E-16));
#309=DIRECTION('',(1.,-9.61469896372151E-16,-3.04227983818753E-16));
#310=DIRECTION('',(-1.,9.61469896372151E-16,3.04227983818753E-16));
#311=DIRECTION('',(3.04227983818753E-16,0.,1.));
#312=DIRECTION('center_axis',(0.866025403784438,-0.500000000000001,-2.6440736937774E-16));
#313=DIRECTION('ref_axis',(0.500000000000001,0.866025403784438,-1.55431223447522E-16));
#314=DIRECTION('',(0.500000000000001,0.866025403784438,-1.52113991909377E-16));
#315=DIRECTION('',(-0.500000000000001,-0.866025403784438,1.52113991909377E-16));
#316=DIRECTION('',(3.04227983818753E-16,0.,1.));
#317=DIRECTION('center_axis',(0.866025403784439,0.499999999999999,-2.6440736937774E-16));
#318=DIRECTION('ref_axis',(-0.499999999999999,0.866025403784439,1.33226762955019E-16));
#319=DIRECTION('',(-0.499999999999999,0.866025403784439,1.52113991909376E-16));
#320=DIRECTION('',(0.499999999999999,-0.866025403784439,-1.52113991909376E-16));
#321=DIRECTION('',(-3.04227983818753E-16,0.,-1.));
#322=DIRECTION('center_axis',(-0.866025403784438,0.500000000000001,2.6440736937774E-16));
#323=DIRECTION('ref_axis',(-0.500000000000001,-0.866025403784438,1.33226762955019E-16));
#324=DIRECTION('',(-0.500000000000001,-0.866025403784438,1.52113991909377E-16));
#325=DIRECTION('',(3.04227983818753E-16,0.,1.));
#326=DIRECTION('',(0.500000000000001,0.866025403784438,-1.52113991909377E-16));
#327=DIRECTION('center_axis',(1.09882273871103E-15,1.,-3.35483033737131E-31));
#328=DIRECTION('ref_axis',(-1.,1.11022302462516E-15,3.10862446895044E-16));
#329=DIRECTION('',(-1.,1.09882273871103E-15,3.04227983818753E-16));
#330=DIRECTION('',(1.,-1.09882273871103E-15,-3.04227983818753E-16));
#331=DIRECTION('center_axis',(-3.04227983818754E-16,0.,-1.));
#332=DIRECTION('ref_axis',(-1.,0.,1.46868681843536E-16));
#333=DIRECTION('center_axis',(3.04227983818753E-16,0.,1.));
#334=DIRECTION('ref_axis',(-1.,0.,0.));
#335=DIRECTION('center_axis',(-3.04227983818753E-16,0.,-1.));
#336=DIRECTION('ref_axis',(-1.,0.,3.04227983818753E-16));
#337=DIRECTION('center_axis',(3.04227983818753E-16,0.,1.));
#338=DIRECTION('ref_axis',(1.,0.,0.));
#339=DIRECTION('center_axis',(3.04227983818753E-16,0.,1.));
#340=DIRECTION('ref_axis',(1.,0.,-3.04227983818753E-16));
#341=DIRECTION('center_axis',(3.04227983818753E-16,0.,1.));
#342=DIRECTION('ref_axis',(1.,0.,-3.5527136788005E-16));
#343=DIRECTION('center_axis',(3.04227983818753E-16,0.,1.));
#344=DIRECTION('ref_axis',(1.,0.,-3.04227983818753E-16));
#345=DIRECTION('center_axis',(3.04227983818753E-16,0.,1.));
#346=DIRECTION('ref_axis',(1.,0.,0.));
#347=DIRECTION('center_axis',(3.04227983818753E-16,0.,1.));
#348=DIRECTION('ref_axis',(1.,0.,-3.04227983818753E-16));
#349=DIRECTION('center_axis',(3.04227983818753E-16,0.,1.));
#350=DIRECTION('ref_axis',(1.,0.,-3.04227983818753E-16));
#351=DIRECTION('center_axis',(-3.04227983818753E-16,0.,-1.));
#352=DIRECTION('ref_axis',(-1.,0.,3.10862446895044E-16));
#353=DIRECTION('center_axis',(3.04227983818753E-16,0.,1.));
#354=DIRECTION('ref_axis',(1.,0.,-2.66453525910038E-16));
#355=DIRECTION('center_axis',(3.04227983818753E-16,0.,1.));
#356=DIRECTION('ref_axis',(1.,0.,-3.04227983818753E-16));
#357=DIRECTION('center_axis',(3.04227983818753E-16,0.,1.));
#358=DIRECTION('ref_axis',(1.,0.,0.));
#359=DIRECTION('center_axis',(3.04227983818753E-16,0.,1.));
#360=DIRECTION('ref_axis',(1.,0.,-3.04227983818753E-16));
#361=DIRECTION('center_axis',(3.04227983818753E-16,0.,1.));
#362=DIRECTION('ref_axis',(1.,0.,0.));
#363=DIRECTION('center_axis',(3.04227983818753E-16,0.,1.));
#364=DIRECTION('ref_axis',(1.,0.,0.));
#365=DIRECTION('center_axis',(3.04227983818753E-16,0.,1.));
#366=DIRECTION('ref_axis',(1.,0.,-3.04227983818753E-16));
#367=DIRECTION('center_axis',(3.04227983818753E-16,0.,1.));
#368=DIRECTION('ref_axis',(1.,0.,0.));
#369=DIRECTION('center_axis',(3.04227983818753E-16,0.,1.));
#370=DIRECTION('ref_axis',(1.,0.,-3.04227983818753E-16));
#371=DIRECTION('center_axis',(3.04227983818753E-16,0.,1.));
#372=DIRECTION('ref_axis',(1.,0.,0.));
#373=DIRECTION('center_axis',(3.04227983818753E-16,0.,1.));
#374=DIRECTION('ref_axis',(1.,0.,-3.04227983818753E-16));
#375=DIRECTION('center_axis',(-3.04227983818753E-16,0.,-1.));
#376=DIRECTION('ref_axis',(-1.,0.,3.04227983818753E-16));
#377=CARTESIAN_POINT('',(0.,0.,0.));
#378=CARTESIAN_POINT('Origin',(-4.0415,3.0140820395097E-15,2.));
#379=CARTESIAN_POINT('',(-4.0415,1.94289029309402E-15,5.));
#380=CARTESIAN_POINT('',(-2.02075,-3.50004166939481,5.));
#381=CARTESIAN_POINT('',(-3.2238125,-1.41627629471397,5.));
#382=CARTESIAN_POINT('',(-4.0415,4.94941003875403E-16,2.));
#383=CARTESIAN_POINT('',(-4.0415,3.33066907387547E-15,3.5));
#384=CARTESIAN_POINT('',(-2.02075,-3.50004166939481,2.));
#385=CARTESIAN_POINT('',(-3.031125,-1.7500208346974,2.));
#386=CARTESIAN_POINT('',(-2.02075,-3.50004166939481,3.5));
#387=CARTESIAN_POINT('Origin',(-2.02075,-3.50004166939481,2.));
#388=CARTESIAN_POINT('',(2.02075,-3.50004166939481,5.));
#389=CARTESIAN_POINT('',(0.239624999999999,-3.50004166939481,5.));
#390=CARTESIAN_POINT('',(2.02075,-3.50004166939481,2.));
#391=CARTESIAN_POINT('',(1.010375,-3.50004166939481,2.));
#392=CARTESIAN_POINT('',(2.02075,-3.50004166939481,3.5));
#393=CARTESIAN_POINT('Origin',(2.02075,-3.50004166939481,2.));
#394=CARTESIAN_POINT('',(4.0415,0.,5.));
#395=CARTESIAN_POINT('',(2.8384375,-2.08376537468083,5.));
#396=CARTESIAN_POINT('',(4.0415,0.,2.));
#397=CARTESIAN_POINT('',(3.031125,-1.75002083469741,2.));
#398=CARTESIAN_POINT('',(4.0415,-4.71844785465692E-15,3.5));
#399=CARTESIAN_POINT('Origin',(4.0415,-4.08451408709346E-15,2.));
#400=CARTESIAN_POINT('',(2.02075000000001,3.50004166939481,5.));
#401=CARTESIAN_POINT('',(3.8488125,0.333744539983425,5.));
#402=CARTESIAN_POINT('',(2.02075,3.50004166939481,2.));
#403=CARTESIAN_POINT('',(4.0415,-2.67300647233238E-15,2.));
#404=CARTESIAN_POINT('',(2.02075,3.50004166939481,3.5));
#405=CARTESIAN_POINT('Origin',(-2.02075,3.50004166939481,2.));
#406=CARTESIAN_POINT('',(-2.02074999999999,3.50004166939481,5.));
#407=CARTESIAN_POINT('',(-2.21343749999999,3.16629712941138,5.));
#408=CARTESIAN_POINT('',(-2.02075,3.50004166939481,2.));
#409=CARTESIAN_POINT('',(-2.02074999999999,3.50004166939481,3.5));
#410=CARTESIAN_POINT('',(-2.02074999999999,3.50004166939481,2.));
#411=CARTESIAN_POINT('Origin',(2.02075,3.50004166939481,2.));
#412=CARTESIAN_POINT('',(2.26037500000001,3.50004166939481,5.));
#413=CARTESIAN_POINT('',(3.031125,3.50004166939481,2.));
#414=CARTESIAN_POINT('Origin',(3.79074006430663E-15,0.,12.4));
#415=CARTESIAN_POINT('',(3.,3.67394039744206E-16,12.3));
#416=CARTESIAN_POINT('Origin',(3.76031726592475E-15,0.,12.3));
#417=CARTESIAN_POINT('',(2.8,-3.42901103761259E-16,12.5));
#418=CARTESIAN_POINT('Origin',(3.8211628626885E-15,0.,12.5));
#419=CARTESIAN_POINT('Origin',(2.93616139386746E-15,0.,9.59099255856655));
#420=CARTESIAN_POINT('',(3.,0.,6.6819851171331));
#421=CARTESIAN_POINT('Origin',(2.05115992504641E-15,0.,6.6819851171331));
#422=CARTESIAN_POINT('Origin',(1.,0.,12.5));
#423=CARTESIAN_POINT('',(1.,0.,12.5));
#424=CARTESIAN_POINT('Origin',(3.8211628626885E-15,0.,12.5));
#425=CARTESIAN_POINT('Origin',(3.22541048772843E-16,0.,1.));
#426=CARTESIAN_POINT('',(1.90041507641942,0.,2.));
#427=CARTESIAN_POINT('Origin',(6.26769032591596E-16,0.,2.));
#428=CARTESIAN_POINT('',(0.5,0.,0.));
#429=CARTESIAN_POINT('Origin',(1.83130649540895E-17,0.,1.52113991909377E-16));
#430=CARTESIAN_POINT('Origin',(4.0415,0.,2.));
#431=CARTESIAN_POINT('Origin',(2.5,0.,5.));
#432=CARTESIAN_POINT('',(2.5,0.,5.));
#433=CARTESIAN_POINT('Origin',(1.53945298404786E-15,0.,5.));
#434=CARTESIAN_POINT('Origin',(1.76762397191192E-15,0.,5.75));
#435=CARTESIAN_POINT('',(2.5,0.,6.5));
#436=CARTESIAN_POINT('Origin',(1.99579495977599E-15,0.,6.5));
#437=CARTESIAN_POINT('Origin',(2.0234774424112E-15,0.,6.59099255856655));
#438=CARTESIAN_POINT('Origin',(2.08412580484006E-15,0.,6.79034424761102));
#439=CARTESIAN_POINT('',(1.,0.,1.08068849522205));
#440=CARTESIAN_POINT('Origin',(3.47088746991615E-16,0.,1.08068849522205));
#441=CARTESIAN_POINT('Origin',(2.73969301118478E-16,0.,0.840344247611024));
#442=CARTESIAN_POINT('',(0.2,0.,0.6));
#443=CARTESIAN_POINT('Origin',(2.00849855245341E-16,0.,0.6));
#444=CARTESIAN_POINT('Origin',(1.09581460099715E-16,0.,0.3));
#445=CARTESIAN_POINT('',(0.2,0.,-7.34788079488413E-17));
#446=CARTESIAN_POINT('Origin',(1.83130649540894E-17,0.,-1.26332111850906E-17));
#447=CARTESIAN_POINT('Origin',(0.5,0.,0.));
#448=UNCERTAINTY_MEASURE_WITH_UNIT(LENGTH_MEASURE(0.01),#452,
'DISTANCE_ACCURACY_VALUE',
'Maximum model space distance between geometric entities at asserted c
onnectivities');
#449=UNCERTAINTY_MEASURE_WITH_UNIT(LENGTH_MEASURE(1.E-6),#452,
'DISTANCE_ACCURACY_VALUE',
'Maximum model space distance between geometric entities at asserted c
onnectivities');
#450=(
GEOMETRIC_REPRESENTATION_CONTEXT(3)
GLOBAL_UNCERTAINTY_ASSIGNED_CONTEXT((#448))
GLOBAL_UNIT_ASSIGNED_CONTEXT((#452,#455,#453))
REPRESENTATION_CONTEXT('','3D')
);
#451=(
GEOMETRIC_REPRESENTATION_CONTEXT(3)
GLOBAL_UNCERTAINTY_ASSIGNED_CONTEXT((#449))
GLOBAL_UNIT_ASSIGNED_CONTEXT((#452,#455,#453))
REPRESENTATION_CONTEXT('','3D')
);
#452=(
LENGTH_UNIT()
NAMED_UNIT(*)
SI_UNIT(.MILLI.,.METRE.)
);
#453=(
NAMED_UNIT(*)
SI_UNIT($,.STERADIAN.)
SOLID_ANGLE_UNIT()
);
#454=DIMENSIONAL_EXPONENTS(0.,0.,0.,0.,0.,0.,0.);
#455=(
CONVERSION_BASED_UNIT('degree',#457)
NAMED_UNIT(#454)
PLANE_ANGLE_UNIT()
);
#456=(
NAMED_UNIT(*)
PLANE_ANGLE_UNIT()
SI_UNIT($,.RADIAN.)
);
#457=PLANE_ANGLE_MEASURE_WITH_UNIT(PLANE_ANGLE_MEASURE(0.01745329252),#456);
#458=SHAPE_DEFINITION_REPRESENTATION(#459,#460);
#459=PRODUCT_DEFINITION_SHAPE('',$,#462);
#460=SHAPE_REPRESENTATION('',(#269),#450);
#461=PRODUCT_DEFINITION_CONTEXT('part definition',#466,'design');
#462=PRODUCT_DEFINITION('v6.1 Nozzle Master','v6.1 Nozzle Master',#463,
#461);
#463=PRODUCT_DEFINITION_FORMATION('',$,#468);
#464=PRODUCT_RELATED_PRODUCT_CATEGORY('v6.1 Nozzle Master',
'v6.1 Nozzle Master',(#468));
#465=APPLICATION_PROTOCOL_DEFINITION('international standard',
'automotive_design',2009,#466);
#466=APPLICATION_CONTEXT(
'Core Data for Automotive Mechanical Design Process');
#467=PRODUCT_CONTEXT('part definition',#466,'mechanical');
#468=PRODUCT('v6.1 Nozzle Master','v6.1 Nozzle Master',$,(#467));
#469=PRESENTATION_STYLE_ASSIGNMENT((#470));
#470=SURFACE_STYLE_USAGE(.BOTH.,#471);
#471=SURFACE_SIDE_STYLE($,(#472));
#472=SURFACE_STYLE_FILL_AREA(#473);
#473=FILL_AREA_STYLE($,(#474));
#474=FILL_AREA_STYLE_COLOUR($,#475);
#475=COLOUR_RGB('',1.,0.682352941176471,0.);
ENDSEC;
END-ISO-10303-21;
